Stop Censorship
 
 

 
 1-9 a b c d e f g h i j k l m n o p q r s t u v w x y z
   Medication - Something New Tab    

Ok, i`ve just found the riffs, i`m looking for this ***in` solo everywhere on the web and i don`t find it !!!!!! if you have it, please e-mail me at yeti33@caramail.com

The song is not in normal tuning but i think it`s drop in B or something like that, i`m not sure, the following tab is in standar tuning.

First part :

e|------------------------------------------------------------
B|------------------------------------------------------------
G|-9-9-9-9-9-9-9-9-7-7-7-7-7-7-7-7-2-2-2-2-2-2-2-2-2-2-2-2-2-2
D|-x-x-x-x-x-x-x-x-x-x-x-x-x-x-x-x-x-x-x-x-x-x-x-x-x-x-x-x-x-x
A|-7-7-7-7-7-7-7-7-5-5-5-5-5-5-5-5-0-0-0-0-0-0-0-0-0-0-0-0-0-0
D|------------------------------------------------------------

e|----------------------------------------------------------------------------------
B|----------------------------------------------------------------------------------
G|-9-9-9-9-9-9-9-9-12-12-12-12-12-12-12-12-16-16-16-16-16-16-16-16-16-16-16-16-16-16
D|-x-x-x-x-x-x-x-x-xx-xx-xx-xx-xx-xx-xx-xx-xx-xx-xx-xx-xx-xx-xx-xx-xx-xx-xx-xx-xx-xx
A|-7-7-7-7-7-7-7-7-10-10-10-10-10-10-10-10-14-14-14-14-14-14-14-14-14-14-14-14-14-14
D|----------------------------------------------------------------------------------

chorus:

e|------------------------------------------------------------
B|------------------------------------------------------------
G|------------------------------------------------------------
D|-7-7-7-7-7-7-7-7-3-3-3-3-3-3-3-3-0-0-0-0-0-0-0-0-0-0-0-0-0-0
A|-7-7-7-7-7-7-7-7-3-3-3-3-3-3-3-3-0-0-0-0-0-0-0-0-0-0-0-0-0-0
D|-7-7-7-7-7-7-7-7-3-3-3-3-3-3-3-3-0-0-0-0-0-0-0-0-0-0-0-0-0-0

voilą !!!! so if you have the solo e-mail me please !!!!!!!!!!!!!yeti33@caramail.com or maagabuf@hotmail.com