Stop Censorship
 
 

 
 1-9 a b c d e f g h i j k l m n o p q r s t u v w x y z
   Ministry - Hero Tab    

Artist:Ministry
Title:Hero
Album:Psalm 69

Standard Tuning
EADGBe
4/4 Time

-Slide down
/-Slide up

Intro

e--------------
B--------------
G--------------
D--7---6---5---
A--5---4---3---
E--------------


e--------------------------------
B--------------------------------
G-------------------------------- x3
D--------------------------------
A-5-4-3-5-4-3-5-4-3-5-4-3-1-3-4-5
E--------------------------------

e--------------------------------
B--------------------------------
G--------------------------------
D-------------------------8---7--
A-5-4-3-5-4-3-5-4-3-5-4-3-6---5--
E--------------------------------


Verse Riff

e---------------------------------------
B---------------------------------------
G---------------------------------------
D-2--------5--------7--------8-----12- x3
A-0-000000-3-000000-5-000000-6-000-10-
E---------------------------------------
PM ------ ------ ------ ---

e-------------------------------------
B-------------------------------------
G-------------------------------------
D-2--------5--------7--------8---7----
A-0-000000-3-000000-5-000000-6---5----
E-------------------------------------
PM ------ ------ ------

Chorus kind of bit (Where it goes `Huh, fight!`)

e----------------------
B----------------------
G----------------------
D-2--------5-----7-----x 3
A-0-000000-3-000-5-----
E----------------------
PM ------ ---

e----------------------
B----------------------
G----------------------
D-2--------8-----7-----
A-0-000000-6-000-5-----
E----------------------
PM ------ ---

e----------------------
B----------------------
G----------------------
D-2--------5-----7-----x 3
A-0-000000-3-000-5-----
E----------------------
PM ------ ---

e----------------------
B----------------------
G----------------------
D-2--------8---7-------
A-0-000000-6---5-------
E----------------------
PM ------



2nd Chorus ends slightly differently before going into solo

e---------------------------------------
B---------------------------------------
G---------------------------------------
D-2--------8---7---7/8---7/8---7/8---7/8
A-0-000000-6---5---5/6---5/6---5/6---5/6
E---------------------------------------
PM ------ ---

Rhythm Part played under solo is the same as the verse only instead
of playing on the A and D strings play it on the E and A strings.

I can`t tab the solo so improvise your own, thats all they do.

Also at the end of the solo part the Rhythm part finishes like this.

e-----------------------
B-----------------------
G-----------------------
D-----------------------x3
A--7---7------7---7--7
E--5---5------5---5--5

e-----------------------------
B-----------------------------
G-----------------------------
D------------------------8---7
A--7---7------7---7--7---6---5
E--5---5------5---5--5--------

After the last chorus play this to finish.
This is the stop/start bit.

(The last chord in these riffs should be played staccato unless stated.)

e----------------------------------
B----------------------------------
G----------------------------------
D--2-------5-------7-------8-----12
A--0-00000-3-00000-5-00000-6-000-10
E----------------------------------
PM ----- ----- -----

e-------------------------------
B-------------------------------
G-------------------------------
D-------5-------7-------8-----12x2
A--0000-3-00000-5-00000-6-000-10
E-------------------------------

e------------------------------------
B------------------------------------
G------------------------------------
D-------5-------7-------8-8-8-8-8-8-8Let ring and feedback slightly.
A--0000-3-00000-5-00000-6-6-6-6-6-6-6
E------------------------------------

There you go the only good song called `Hero` ever written.