Stop Censorship
 
 

 
 1-9 a b c d e f g h i j k l m n o p q r s t u v w x y z
   Ministry - Theives Tab    


-----------------------------------
-----------------------------------
-----------------------------------
------------------------3----------
-0----------------------1----0-----
-----------------------------------
^speed pick ^Speed pick

Repeat as nessecary until...

D -------3---------3--------
A -0-----1----0----1--------
^Hold


Can be used as power chord roots

D -------------------------------
A 0-1-0-2-0-1-0-2----------------
E -------------------------------


D -------------------------------
A 3-3-2-1-3-3-2-1-3-3-2-1-3-3-2-1
E -------------------------------


D --3---
A --1---
E ------
Hold^