Stop Censorship
 
 

 
 1-9 a b c d e f g h i j k l m n o p q r s t u v w x y z
   Monster Magnet - 19 Witches Tab    


band:monster magnet
song:19 witches
album:powertrip


(tune 1/2 down)



Verse riff:
eb------------
bb------------
gb------------ use bridge pickup
db------------
ab-------/32-
eb-2-2--2-----

Verse chords:
F#, Gm

In-between riff:
eb--------------------------------------------
bb--------------------------------------------
gb--------------------------------------------
db--------------------------------------------
ab------------020------------22222-2-0--------
eb-2-2222-2-2-----3-2-2-2--2-----------3-2-22-


Chorus chords: (I said woh-oh-oh...)
F#, A, C#

Chorus riff:
eb----------------------------------------------
bb---------------------------------------------- play variations
gb---------------------------------------------- of the end the
db---------------------------------------------- last chorus.
ab----------0-0000000-4-444444--4-5-4-5-4-2-----
eb-2-222222---------------------------------5-4-


Post-chorus:
eb-4-4-4-4-545-4-4-4-4-575-4-4-4-4-545-4-4-4-4-2-2-
bb-------------------------------------------------
gb-------------------------------------------------
db-------------------------------------------------
ab-------------------------------------------------
eb-------------------------------------------------

More post-chorus:
eb-16--16-17-16--16-17-14--14-15-14-15-14--13--13-14-13--13-14-13--11-11--
bb------------------------------------------------------------------------
gb------------------------------------------------------------------------
db------------------------------------------------------------------------
ab------------------------------------------------------------------------
eb------------------------------------------------------------------------