Stop Censorship
 
 

 
 1-9 a b c d e f g h i j k l m n o p q r s t u v w x y z
   Monster Magnet - Bummer Tab    


band:monster magnet
song:bummer
album:powertrip


(tune down 1/2)


intro riff:
eb----------
bb----------
gb----------
db-7/11-11--
ab-7/11-11--
eb-5/-9--9--

main riff:
eb--------------------
bb--------------------
gb------------9-------
db-7/11-11-xx-9-x-7-x-
ab-7/11-11-xx-7-x-7-x-
eb-5/-9--9-xx---x-5-x-

"i you wanna stuff..."-part:
eb------------
bb------------
gb------------ something like this
db---4-4-4-44-
ab---4-4-4-44-
eb-0h2-2-2-22-

chorus:
eb------------------------------
bb------------------------------
gb------------------------------
db-6-6-6-6--6-6-7-7-7--2--/9-9--
ab-6-6-6-6--6-6-7-7-7--2--/9-9--
eb-4-4-4-4--4-4-5-5-5--0--/7-7--

riff:
eb------------------------
bb------------------------
gb------------------------
db-11-11-11-11------------
ab-11-11-11-11-10-9-7-9-7-
eb--9--9--9--9------------

end:
eb----------- -------------------------------
bb----------- -------------------------------
gb----------- -12---11----9------------------
db-9-11-9-11- -12---11----9-------------9-11-
ab-9-11-9-11- -10----9----7-------------9-11-
eb-7--9-7--9- --------------------------7--9-