Stop Censorship
 
 

 
 1-9 a b c d e f g h i j k l m n o p q r s t u v w x y z
   Monster Magnet - Kiss Of The Scorpion Tab    

Song:Kiss of the scorpion
Band:Monster magnet
Tabber:Brad Bishell

Tune down 1/2 step

The other tab of this isn`t that good so i decided to re-tab it for you all

There isn`t any actual guitar in the intro and verse, just organs.
However, I`ve made the melody into a guitar line so you can play along.

INTRO and VERSE

|-------------------|
|-------------------|
|-------------------|
|-10--10----12--12--|
|--8---8----10--10--|
|-------------------|

CHORUS:

|-------------------------------|
|-------------------------------|
|--6----6--6/--10-10------------|
|--6----6--6/--10-10---8---8-8--|
|--4----4--4/---8--8---8---8-8--|
|----------------------6---6-6--|