Stop Censorship
 
 

 
 1-9 a b c d e f g h i j k l m n o p q r s t u v w x y z
   Monster Magnet - Pill Shovel Tab    

Song:Pill Shovel
Band:Monster Magnet
Tabber:Brad Bishell

Pill Shovel

Tune down 1/2 step

b=bend

INTRO:

|------------------------------|
|------------------------------|
|------------------------------|
|---5----5----5------5-5---5h7-|
|-0----0----0----0-0-0-0-0-----|
|------------------------------|

|------------------------------|
|------------------------------|
|------------------------------|
|---5----5----5------5-5-5-54-|
|-0----0----0----0-0-0-0-0-0---|
|------------------------------|

|------------------------------|
|------------------------------|
|---5b---5b---5b---5b------5h7-|
|-0----0----0----0-----0-0-----|
|------------------------------|
|------------------------------|

|---------------------------|
|---------------------------|
|---5b---5b---5b---5-5-5h7--|
|-0----0----0----0----------|
|---------------------------|
|---------------------------|

VERSE:

Guitar 1:

|------------------------------------------|
|------------------------------------------|
|-----5h7-5-----5h7-4-----7h9-7----4/5-54-|
|-0-0-------0-0-------0-0-------0-0--------|
|------------------------------------------|
|------------------------------------------|

Guitar 2:

|------------------------------------------|
|------------------------------------------|
|------------------------------------------|
|--7----7---7------7--5---5-----5---5----5-|
|--5----5---5------5--3---3-----3---3----3-|
|------------------------------------------|

CHORUS:

|-----------------------------------------|
|-----------------------------------------|
|-----------------------------------------|
|-----------------------------------------|
|-10--10-10--10--10-10-/12--12-12-10--10-|
|--0---0--0---0---0--0---0---0--0---0---0-|

|------------------------------------------|
|------------------------------------------|
|1211--11-11-11-11-11-/12--12-12-12-12-12-|
|------------------------------------------|
|10-9---9--9--9--9--9-/10--10-10-10-10-10-|
|-0--0---0--0--0--0--0---0---0--0--0--0--0-|

BRIDGE:...x3...........x1

|------------------|-----------------------|
|------------------|-----------------------|
|-------------5b---|-----------------------|
|---7--5--2--------|-7--2--5--5-5-5-5-5-5--|
|---5--3--0--------|-5--0--3--3-3-3-3-3-3--|
|------------------|-----------------------|