Stop Censorship
 
 

 
 1-9 a b c d e f g h i j k l m n o p q r s t u v w x y z
   Monster Magnet - Space Lord Tab    


band:monster magnet
song:spacelord
album:powertrip



Intro/Verse:
eb-------------------------------------- Words of wisdom:
bb------------2-4-xx------------4-2-(x)- "Don`t be precise.
gb------------2-4-xx------------4-2-(x)- Rather play one note
db-4--x-2-4-x--------4--x-2-4-x--------- wrong but with feeling,
ab-4--x-2-4-x--------4--x-2-4-x--------- then everything right
eb-------------------------------------- with no feeling."

Fill used live:
eb--------------------------------------
bb--------------------------------------
gb-------------------------------------- < is a volume swell.
db--------------------------------------
ab-<2~~~~~~~~~~~~~~~~~~~~~~~~~~~~~~~----
eb--------------------------------------

Aaaaah-part:
eb----------------
bb----------------
gb-4-4-4-4-4-4-44-
db-4-4-4-4-4-4-44-
ab-2-2-2-2-2-2-22-
eb----------------

Chorus:
eb------------------
bb------------------
gb-------------9----
db-11-11-9-11--9-9--
ab-11-11-9-11--7-9--
eb--9--9-7--9----7--

Bridge:
guitar 1. guitar2.
eb-------------- eb------------------
bb-------------- bb------------------
gb-------------- gb-------------9----
db-------------- db-11----------9----
ab-------------- ab-11----------7----
eb-9~~~~-5-~~~~- eb--9---------------