Stop Censorship
 
 

 
 1-9 a b c d e f g h i j k l m n o p q r s t u v w x y z
   Monster Magnet - Space Lord Tab    

Verse [1]:
e|---------------------------------|
B|---------------------------------|
G|-----------------1---3---1-------|
D|-3---x---1---3---1---3---1-------|
A|-3---x---1---3-------------------|
D|---------------------------------|

Prechorus ("aaaah") [2]:
e|---------------------------------|
B|---------------------------------|
G|-3---3---3---3-------3---3---3-3-|
D|-3---3---3---3-------3---3---3-3-|
A|-1---1---1---1-------1---1---1-1-|
D|---------------------------------|

Chorus [3]:
e|---------------------------------|
B|---------------------------------|
G|-5---5---3---5---x---x---8---3---|
D|-5---5---3---5---x---x---8---3---|
A|-3---3---1---3---x---x---6---1---|
D|---------------------------------|

Bridge [4]:
e|---------------------------------|
B|---------------------------------|
G|-6~~~~~~~~~~~~~~-9~~~~~~~~~~~~~~-|
D|-6~~~~~~~~~~~~~~-9~~~~~~~~~~~~~~-|
A|-4~~~~~~~~~~~~~~-7~~~~~~~~~~~~~~-|
D|---------------------------------|

PLAYING ORDER:
| Lead | Rhythm |
Intro | | [1c] | x4
Verse | | [1c] | x12
Prechorus | | [2c] | x4
Verse | [1c] | [1c] | x12
Prechorus | [2c] | [2c] | x4
Verse | [1c] | [1c] | x4
Chorus | [3d] | [3d] | x8
Verse | [1c] | [1c] | x12
Prechorus | [2c] | [2c] | x4
Verse | [1c] | [1c] | x4
Chorus | [3d] | [3d] | x12
Bridge | [4d] | | x8
Chorus | [3d] | [3d] | x24