Stop Censorship
 
 

 
 1-9 a b c d e f g h i j k l m n o p q r s t u v w x y z
   Monster Magnet - Tractor Tab    

Monster Magnet

Song: Tractor
Tabbed by: cureme

Intro:
G-555-8--333-5---
D-555-8--333-5---
A-333-6--111-3---
E----------------

Verse: 0:27
G-555-8--333-5---555-8--101010-5---
d-555-8--333-5---555-8--101010-5---
A-333-6--111-3---333-6--8-8-8--3---
E----------------------------------

Chorus: Same as intro

"Get Down" Part: 2:01
G-5-5-5-5-5-5--
D-5-5-5-5-5-5--
A-3-0-3-0-3-0--
E--------------

Solos: Use a wah-wah and mess around in C

End:
G-5---
D-5---
A-3---
E-----