Stop Censorship
 
 

 
 1-9 a b c d e f g h i j k l m n o p q r s t u v w x y z
   Morbid Dream - Sweet Dreams (are Made Of This) Tab    

morbid dream
cover song
sweat dreams ( are made of this )
standerd tuning

|--------------------------------| verse....repeat this about 9 times up untill the chorous stars
|--------------------------------|
|--------------------------------|
|-----5---6---5------------------|
|-3-3---3---3---3-----6/8----5/6-|
|-----------------4-4-----3-3----|


|---------------------------------------------------------------------------------------------------| this is the
|---------------------------------------------------------------------------------------------------| chorous
|-----------------------------------5-5-5-5-5-5-5-5-------------------------------------------------|
|-6-6-6-6-6-6-6-6-6-6-6-6-6-5-5-5-5-5-5-5-5-5-5-5-5-6-6-6-6-5/6-6-5-6-6-6-6-6-6-6-6-5-5-5-5-5-5-5-5-|
|-6-6-6-6-6-6-6-6-6-6-6-6-6-5-5-5-5-3-3-3-3-3-3-3-3-6-6-6-6-5/6-6-5-6-6-6-6-6-6-6-6-5-5-5-5-5-5-5-5-|
|-4-4-4-4-4-4-4-4-4-4-4-4-4-3-3-3-3-----------------4-4-4-4-3/4-4-3-4-4-4-4-4-4-4-4-3-3-3-3-3-3-3-3-|

verse 2 intro is as same as verse riff only you play it with waa waa


|-------11-----------------------------------------------------------11~~13-14~14^------|
|-11-13----11-h13p11-------------------------------------------11-13--------------13~~~-|
|--------------------11^----------------------------6h7p6-9-9^--------------------------| the solo
|------------------------9-7h9-----------------9-9-------------------------------------|
|-------------------------------7-7^-------7-7^-----------------------------------------|
|------------------------------------7h9-9----------------------------------------------|

|------------------------|
|------------------------|
|-9-9-7-9----9-9-7-5---5-| this is the ending....you play it over and over again faster and faster
|-9-9-7-9----9-9-7-5---5-| each time until you reach the end...then you just slide you fingers up and down
|-7-7-5-7----7-7-5-3-0-3-| the strings....thats

thats about it...unlike the manson version their is no solo on the second and third chorous so you dont have to worry about that....alright...go play morbid dream and manson