Stop Censorship
 
 

 
 1-9 a b c d e f g h i j k l m n o p q r s t u v w x y z
   One For The Team - Nothing So Far Tab    


This song is called “nothing so far” its by us “one for the team” ( a very gay name) and it goes a little bit like this…..



e--------------------------------------------------------------------------------------------------------]
B-------------------------------------------------------------------------------------------------------]
G-----6p7-6-9-6-7-6-----6p7-6-9-6-7-6-------6p7-6-9-6-7-6-------6p7-6-9-6-7-6-----------]
D---7--------------------7-----------------------0----------------------9-----------------------------]
A-------------------------------------------------------------------------------------------------------]
E-------------------------------------------------------------------------------------------------------]


And yeh the chords just go like this; you all shud kno em by now but im bored so yeh



A—A—D—B


A A D B
e------------------------------------------------------------------------------------------------
B------------------------------------------------------------------------------------------------
G-----------------------------------------------------------------------------------------------
D----7----------7-------------9-----------4---------------------------------------------------
A----7----------7-------------9-----------4---------------------------------------------------
E----5----------5-------------7-----------2---------------------------------------------------