Stop Censorship
 
 

 
 1-9 a b c d e f g h i j k l m n o p q r s t u v w x y z
   Papa Roach - She Loves Me Not Tab    

Author/Artist: Papa Roach
Title: She Loves Me Not
Album: Lovehatetragedy
Transcribed by: Ben Knight of BrokenH.com
Email: kayohrn@aol.com

Tuning IS Drop-D: DADGBE (low-to-high)
NOT Drop-C as seen in Guitar One Magazine

This tab is as accurate as possible. I have updated several time based on
watching several live performances as well as suggestions from other ppl.

Last Updated: 08/20/02

------------------------------------------------------------------------------
------------------------------------------------------------------------------
------------------------------------------------------------------------------
-x-7-7--x-3-3--x-0-0--x-2-2-xxx-2-2-xxx---------------------------------------
-x-7-7--x-3-3--x-0-0--x-2-2-xxx-2-2-xxx---------------------------------------
-x-7-7--x-3-3--x-0-0--x-2-2-xxx-2-2-xxx---------------------------------------
Verse Pt. 1 and 3

------------------------------------------------------------------------------
------------------------------------------------------------------------------
------------------------------------------------------------------------------
-x-7-7--x-3-3--x-0-0--x-2-2-xxx-5-5-xxx---------------------------------------
-x-7-7--x-3-3--x-0-0--x-2-2-xxx-3-3-xxx---------------------------------------
-x-7-7--x-3-3--x-0-0--x-2-2-xxx-5-5-xxx---------------------------------------
Verse Pt. 2

------------------------------------------------------------------------------
------------------------------------------------------------------------------
------------------------------------------------------------------------------
-x-7-7---2-2-----2---x-3-3---2-2-----2---x-0-0---2-2-----2---x-2-2---2-2------
-x-7-7-------3-3---3-x-3-3-------3-3---3-x-0-0-------3-3---3-x-2-2-------3-3--
-x-7-7-x-------------x-3-3-x-------------x-0-0-x-------------x-2-2-x----------
Pre-Chorus

------------------------------------------------------------------------------
------------------------------------------------------------------------------
------------------------------------------------------------------------------
-2-2--------------------------------------------------------------------------
-----3------------------------------------------------------------------------
------------------------------------------------------------------------------


--------------------------------------------------------|---------------------
--------------------------------------------------------|---------------------
--------------------------------------------------------|---------------------
-3-3-3--3--3-5-5-5--5--5-7-7-7--7--7-7-7-7--7-----------|--7-7-7-7v-7---------
-3-3-3--3--3-5-5-5--5--5-7-7-7--7--7-7-7-7--7-----------|---------------------
-3-3-3--3--3-5-5-5--5--5-7-7-7--7--7-7-7-7--7-----------|---------------------
Chorus (Fighting all the time.. this is out of line..) Gtr 2

------------------------------------------------------------------------------
------------------------------------------------------------------------------
------------------------------------------------------------------------------
-7-7-7-3-3--3-3-3-5-5--5-5-5-7-7----------------------------------------------
-7-7-7-3-3--3-3-3-5-5--5-5-5-7-7----------------------------------------------
-7-7-7-3-3--3-3-3-5-5--5-5-5-7-7----------------------------------------------
Fill 1 (Transitions from Chorus to verse)

------------------------------------------------------------------------------
------------------------------------------------------------------------------
------------------------------------------------------------------------------
----7~-9~-5~------------------------------------------------------------------
-7~----------3~---------------------------------------------------------------
------------------------------------------------------------------------------
Guitar 2 For the "Rap" Verse (Verse #3) (Line for Line, Rhyme For Rhyme,..)

------------------------------------------------------------------------------
------------------------------------------------------------------------------
---------------------------------------9------------9-------------------------
-10-10-10--10--10-5-5-5--5--5-7-7-7---9--x-7-7-7---9--------------------------
-10-10-10--10--10-5-5-5--5--5-7-7-7--7---x-7-7-7--7---------------------------
-10-10-10--10--10-5-5-5--5--5-7-7-7-7----x-7-7-7-7----------------------------
Fill 2 (Lifes not fairrrrr...)

------------------------------------------------------------------------------
------------------------------------------------------------------------------
------------------------------------------------------------------------------
-3-3-3-3-3-3-3-3-5-5-5-5-5-5-5-5-7-7-7-7-7-7-7-7------------------------------
-3-3-3-3-3-3-3-3-5-5-5-5-5-5-5-5-7-7-7-7-7-7-7-7------------------------------
-3-3-3-3-3-3-3-3-5-5-5-5-5-5-5-5-7-7-7-7-7-7-7-7------------------------------
Fill 3 (LIFES NOT FAIR!! LIFES NOT FAIR!!) Same as chorus, diff. rhythm

-------------------------------------------|----------------------------------
-------------------------------------------|----------------------------------
-----------------------------12-12--14--16-|10p9-10p9-10p9-10p9---------------
-------------------------------------------|----------------------------------
-7-10-12-10-7v---5-4v-7v---7-10-10--12--14-|----------------------------------
-------------------------------------------|----------------------------------
Gtr 2 for Ending(Starts at 2:56, Behind Fill 2) ^Played during Palmute below(x2)

------------------------------------------------------------------------------
------------------------------------------------------------------------------
------------------------------------------------------------------------------
-x-3-3-3--3-3-x-0-0-0--0-0-x-2-2-2-2-2-2-2-2-2-2-2-2-2-2-2-2------------------
-x-3-3-3--3-3-x-0-0-0--0-0-x-2-2-2-2-2-2-2-2-2-2-2-2-2-2-2-2------------------
-x-3-3-3--3-3-x-0-0-0--0-0-x-2-2-2-2-2-2-2-2-2-2-2-2-2-2-2-2------------------
Ending x x x x x x x x x x x x x x x


------------------------------------------------------------------------------
------------------------------------------------------------------------------
--------5-----------7-----9-9-9-9-9-------------------------------------------
-3-3-3--3--3-5-5-5--5--5--7-7-7-7-7-------------------------------------------
-3-3-3--3--3-5-5-5--5--5--7-7-7-7-7-------------------------------------------
-3-3-3--3--3-5-5-5--5--5--7-7-7-7-7-------------------------------------------
Ending (continued) ^ Let it Ring out.

In order as follows:

Verse Pt. 1 (x1)
Verse Pt. 2 (x1)
Verse Pt. 3 (x1)
Pre-Chorus (x1)
Chorus (x2)
Fill 1 (x1)
Verse Pt. 1 (x1)
Verse Pt. 2 (x1)
Verse Pt. 3 (x1)
Pre-Chorus (x1)
Chorus (x2)
Fill 2 (x2)
Fill 1 (x1)
Verse Pt. 1 (x1)
Verse Pt. 2 (x1)
Verse Pt. 3 (x1)
Pre-Chorus (x1)
Chorus (x2)
Fill 3 (x1)
Fill 2 w/ Gtr 2 (x1)
Ending

Copyright (c) www.BrokenH.com 2002.

**If you wish to publish this tab elsewhere, you must first seek permission by emailing kayohrn@aol.com.**