Stop Censorship
 
 

 
 1-9 a b c d e f g h i j k l m n o p q r s t u v w x y z
   Paragraf 119 - Registreret Tab    

Mxtabs [http:/www.mxtabs.net]

Intro:
e|------------------------------------------|
B|------------------------------------------|
G|------------------------------------------|
D|-10-(-10-10-10-10-)-6-6-6--8-8-8----------|x2
A|-10-(-10-10-10-10-)-6-6-6--8-8-8----------|
E|-8--(-8--8--8--8--)-4-4-4--6-6-6----------|

Intro:
e|--------------------------------------------------------|
B|--------------------------------------------------------|
G|--------------------------------------------------------|
D|-10-(-10-10-10-10-)-6-6-6--8-8-8--6-6-6-6-5-5-5-5-------|x1
A|-10-(-10-10-10-10-)-6-6-6--8-8-8--6-6-6-6-5-5-5-5-------|
E|-8--(-8--8--8--8--)-4-4-4--6-6-6--4-4-4-4-3-3-3-3-------|



Verse:
e|-----------------| e|-------------------------|
B|-----------------| B|-------------------------|
G|-----------------| G|-------------------------|
D|--10----6--8-----|x 2 D|--10----6--8----6--5-----|x1
A|--10----6--8-----| A|--10----6--8----6--5-----|
E|--8-----4--6-----| E|--8-----4--6----4--3-----|



Chorus I:
e|------------------------------------| e|---------------------| e|-------------------------|
G|------------------------------------| G|---------------------| G|-------------------------|
B|------------------------------------| B|---------------------| B|-------------------------|
D|--10----8----10----8----6----5------|x 2 D|--10----6--8---------|x2 D|--10----6--8----6--5-----|x1
A|--10----8----10----8----6----5------| A|--10----6--8---------| A|--10----6--8----6--5-----|
E|--8-----6----8-----6----4----3------| E|--8-----4--6---------| E|--8-----4--6----4--3-----|



Intro x1
Verse x2
chorus
chorus x2 (second part)
chorus x1 (first part)
verse x2
chorus x1
chorus x1 (second part)