Stop Censorship
 
 

 
 1-9 a b c d e f g h i j k l m n o p q r s t u v w x y z
   Pointless - Thinkin/ To Myself Tab    

band: Pointless
song: thinkin` to myself
album: up and cumming album (we`re stil working on it).

intro:
E-------------------------------------
B-------------------------------------
G------------------------------------- x2
D-------------------------------------
A---33333--22---6p5---00000---333--222
E-------------------------------------



main riff

E------------------------------------------
B------------------------------------------
G---6-6-6-6-6-4-4-8-7-2-2-2-2-2--6-6-6-5-5-
D---6-6-6-6-6-4-4-8-7-2-2-2-2-2--6-6-6-5-5- x3
A---3-3-3-3-3-2-2-6/5-0-0-0-0-0--3-3-3-2-2-
E------------------------------------------


chorus

E------------------------------------------
B------------------------------------------
G--7-7-7-7-7-------------------------------
D--7-7-7-7-7---7-7-7-7---9-9-9-9---5-5-5-5- x 2
A--5-5-5-5-5---7-7-7-7---9-9-9-9---5-5-5-5-
E--------------5-5-5-5---7-7-7-7---3-3-3-3-

if you think anything is wrong email me at neoknights2002@aol.com (i can tel you now that nothing is wrong seen as i wrote the song)