Stop Censorship
 
 

 
 1-9 a b c d e f g h i j k l m n o p q r s t u v w x y z
   Polaris - Everywhere Tab    

ARTIST: Polaris
TITLE: Everywhere
ALBUM: The Adventures of Pete & Pete

~ means to let the note sustain

INTRO/VERSE

e|-----------------------------------
B|--3~----3---1~----3---1---0--------
G|0-----0---0-----0---0---0----------
D|-----------------------------------
A|-----------------------------------
E|-----------------------------------

Guitar 2 plays this fill in the background
intermittently
e|----0~-----------------------------
B|--3--------------------------------
G|0----------------------------------
D|-----------------------------------
A|-----------------------------------
E|-----------------------------------


PRE-CHORUS

Guitar 1
e|-----------------------------------
B|3---3---5---5---7---8-8------------
G|--0---0---0---0---0----------------
D|-----------------------------------
A|-----------------------------------
E|-----------------------------------

Guitar 2
e|-----------------------------------
B|8---7---5---3---5---3---1-1---3----
G|--0---0---0---0---0---0-----0---0--
D|-----------------------------------
A|-----------------------------------
E|-----------------------------------


CHORUS (Clean)

Guitar 1
G D C G
e|-3---2---0---x---------------------
B|(3)--3---1---3---------------------
G|-0---2---0---0---------------------
D|-0---0---2---0---------------------
A|-2-------3---2---------------------
E|-3-------0---3---------------------

Guitar 2
e|-----------------------------------
B|-8---7---5---3---------------------
G|-----------------------------------
D|-----------------------------------
A|-----------------------------------
E|-----------------------------------


POST-CHORUS ("Everywhere... everywhere")

C
e|-0~--0-0~--------------------------
B|-1~--1-1~--------------------------
G|-0~--0-0~--------------------------
D|-2~--2-2~--------------------------
A|-3~--3-3~--------------------------
E|-0~--0-0~--------------------------


Harmonica Solo
(Play VERSE, then FILL)


FILL (During Harmonica Solo)
e|-----------------------------------
B|-8---7---5---3---7---8---8---------
G|---0---0---0---0---0---------------
D|-----------------------------------
A|-----------------------------------
E|-----------------------------------