Stop Censorship
 
 

 
 1-9 a b c d e f g h i j k l m n o p q r s t u v w x y z
   Polaris - Hey Sandy Tab    

BAND NAME: POLARIS
SONG: HEY SANDY
POSTED BY: GEIGENATION

Chords

Intro: D C# B A E A
Verse: A D F# E

I’m not going to bother with the strumming or beat because it’s so easy to figure out or make up for yourself.

Intro: the way i play it…power chords sound best for this part
D C# B A E A
E--------------------------------------------|
B---------------------------2-----------2----|
G-----7-------6------4 -----2-----1-----2----|
D-----7-------6------4------2-----2-----2----|
A-----5-------4------2----------- 2----------|
E--------------------------------------------|

Verse: sounds best with barred chords. all except E…that can be played regular if you want
A D F# E
E--------5---------5--------2--------0---
B--------5---------7--------2--------0---
G--------6---------7--------3--------1---
D--------7---------7--------4--------2---
A--------7---------5--------4--------2---
E--------5---------5--------2--------0---

A D F# E
Hey Smilin’ strange
A D F# E
You’re lookin’ happily deranged
A D F# E
…unknown line... (sounds like he says couldasettlashimbe)
A D F# E
Or have you picked your target yet?
D C# B A E A
Hey Sandy ai yai yai yai
D C# B A E A
Don’t you talk back ai yai yai yai hey Sandy
A D F# E
Four feet away

A D F# E
End of speech it’s the end of the day
A D F# E
We was only funnin’
A D F# E
But guiltily I thought you had it comin
D C# B A E A
Hey Sandy ai yai yai yai
D C# B A E A
Don’t you talk back ai yai yai yai hey Sandy

Musical part:
D A E A x2
Right after that it does the D C# B A E A

Then the solo:
E------12----10----9------------------------------------------------------|
B--------------------------10(x5)----slide-- 9(x3) ----slide-- 7(x5)------|
G-------------------------------------------------------------------------| x2
D-------------------------------------------------------------------------|
A-------------------------------------------------------------------------|
E-------------------------------------------------------------------------|

E---12---10---9--------------------------------------------------------------|
B----------------10(x5)-slide-14 15 14-slide-10---10(x5) 9(x3) 7(x5) 9(x3)--|

D C# B A E A
Ai yai yai yai hey sandy
D C# B A E A
Don’t you talk back ai yai yai yai hey sandy
D C# B A E A
Ai yai yai yai hey sandy
D C# B A E A
Don’t you talk back ai yai yai yai hey sandy ehhh

End thing: only on high E and B string…I do it that way for some reason
E------2(hold)----2----4---5----2---0----0h2---0-----------2(hold)---2----4---5-|
B--------------------------------------------------3--2-------------------------|

E-----7---5---4---5---4---2---4---2---0----2(hold)---5---7---5---10-10----9----|

E----10---9---7---5---5---7---5---5---4---5---5---4---5---5 (ends on A chord)--|