Stop Censorship
 
 

 
 1-9 a b c d e f g h i j k l m n o p q r s t u v w x y z
   Polaris - Hey Sandy adventures Of Pete And Pete Tab    

This was the theme song to the show "The Adventures of Pete and Pete." Its a great song and quite easy.


Intro

E---------------------------------------------------------------------
B---------------------------------------------------------------------
G---------------------------------------------------------------------
D---7-6-4-2-2-2-------------------------------------------------------
A---5-4-2-0-0-0-------------------------------------------------------
E---------------------------------------------------------------------

Verse

E----------------------------------------------------------------
B----------------------------------------------------------------
G----------------------------------------------------------------x4
D--7-77--7-77--4-44--2-22----------------------------------------
A--7-77--5-55--4-44--2-22----------------------------------------
E--5-55--------2-22--0-00----------------------------------------

Chorus

E---------------------------------------------------------------------
B---------------------------------------------------------------------
G---------------------------------------------------------------------
D---7-6-4-----------7-6-4---------------------------------------------
A---5-4-2---2-22----5-4-2---2-22--------------------------------------
E-----------0-00------------0-00--------------------------------------


Solo


e|--10-9--------------------------------------------10-9-----|
B|-------10---10--10--10-10--9--9--9---7--7--7--7--------10--| x2
G|-----------------------------------------------------------|
D|-----------------------------------------------------------|
A|-----------------------------------------------------------|
E|-----------------------------------------------------------|

e|--------------------------10--10--10-10--9--9--9-----------|
B|--10--10--10-10--9--9--9-----------------------------------|
G|-----------------------------------------------------------|
D|-----------------------------------------------------------|
A|-----------------------------------------------------------|
E|-----------------------------------------------------------|

e|-----------------------------------------------------------|
B|--10---10--10--10-10--9--9--9---7--7--7--7---9--9--9-------|
G|-----------------------------------------------------------|
D|-----------------------------------------------------------|
A|-----------------------------------------------------------|
E|-----------------------------------------------------------|