Stop Censorship
 
 

 
 1-9 a b c d e f g h i j k l m n o p q r s t u v w x y z
   Polaris - Waiting For October Tab    

ARTIST: Polaris
TITLE: Waiting for October
TABBED BY: DJSeebs

I`m pretty sure everything is *** near perfect. Any corrections are welcome.

########################################################
VERSE
|--------------------
|--------------------
|-----9---7---9------
|-7---9---7---9------
|-7---7---5---7------
|-5------------------

########################################################
CHORUS
|--------------
|--------------
|-7--9---------
|-7--9--7------
|-5--7--7------
|-------5------


(final part of chorus)
|------------------
|------------------
|-7--9--7----------
|-7--9--7--(hold)--
|-5--7--5----------
|------------------

#######################################################
BRIDGE/OUTRO

(note: pick around with your fingers)
|-5--4---5----
|-6--5---5----
|-7--6---6----
|-7--6---7----
|-5--4---7----
|-x--x---5----

(final part of bridge)
|-5--4---5----
|-6--5---6----
|-7--6---7----
|-7--6---7--(hold)
|-5--4---5----
|-x--x---x----

########################################################
SOLO
|----------9--(9)--|--9---------------------------|
|--10--12----------|----12-9-10-9-----------10-12-|
|------------------|--------------9----9h11-------|
|------------------|--------^---------------------|
|------------------|-----(fast)-------------------|
|------------------|------------------------------|

|----------------------------------------------|----------------------
|-12--12--12/14--14--12--10--------------------|----------------------
|----------------------------11--9--9h11--9----|---(9h11-11-9)--------
|----------------------------------------------|----------------------
|----------------------------------------------|----------------------
|----------------------------------------------|----------------------

########################################################
OUTRO
Use the bridge chords

(Final Part of outro)
|--5-------12--
|--6-------14--
|--7---9---14--
|--7---9---14--
|--5---7---12--
|--------------

########################################################
LYRICS (Special Thanks to http:/tevi.davidsj.com)

They`re playing in Central Park
Check out him, he`s shouting at the gate
"Billy didn`t tell you everything
or did he mention the magic day?"

Well I figured it out from a fig tree
It`s the chosen feel of the devil in silk
Now you been bad for 50 years
and now it looks like that he`s taking off his belt

Waiting for October
I cross my fingers
cross my heart
and hope to die

Waiting for October
I`m in the book
and I`ll be learning how to fly

He`s coming down but he`s not alone
He`s gonna bring an army of saints
and he`s taking all his back home
and then destroying what remains

Waiting for October
I cross my fingers
cross my heart
and hope to die

Waiting for October
I`m in the book
and I`ll be learning
to be wings
to be wings

Hoping that the end
will start it all again

And that`s when numeral history will die
I said and that`s what`s so right about the day
Cause it all ends in 1999
and commences on the 28th, the 28th, the 28th

Waiting for October
I cross my fingers
cross my heart
and hope to die

Waiting for October
I`m in the book
and I`ll be learning how to fly

Waiting for October
I cross my fingers
cross my heart
and hope to die

Waiting for October
I`m in the book
and I`ll be learning how to fly

Hopin` that the end
will start it all again