Stop Censorship
 
 

 
 1-9 a b c d e f g h i j k l m n o p q r s t u v w x y z
   Polaris - Waiting For October Tab    

Bass tab
Verse
G|-----------------------------------------|
D|----------------------------------------o|
A|-----7777/555-7777----------------------o|
E|-555-------------------------------------|

Chorus
G|-----------------------------------------|
D|---------------(7)764-------------------o|
A|-55577777-----------7-5557777-------45o|
E|-----------555------------------555-57---|

Bridge/Outro
G|-----------------------------------------|
D|----------------------764---------------o|
A|-5~4~-------5/4-5~4~-----7--------------o|
E|------5~-5h7--------5~-------------------|

Finale
G|-----------------------------------------|
D|-----------------------------------------|
A|-5~4~5~7/-------------------------------|
E|----------5~-----------------------------|

Itís pretty simple, but with the little walks he does it makes it more fun to play. Hope you like it.