Stop Censorship
 
 

 
 1-9 a b c d e f g h i j k l m n o p q r s t u v w x y z
   Queens Of The Stone Age - Avon Tab    

Queens of the Stone Age - Avon
from the album: Queens of the Stone Age

****************
* / - slide *
* ^ - strech *
****************

the song goes in this order:
-intro
-verse
-chorus 1
-verse
-chorus 2
-solo
-ending
______________________________________
| NOTE: Like all Q.O.T.S.A songs this |
| one too is tuned two tones down |
| (from C), However the tabs I write |
| are for more convenient use and |
| they are tuned regulary (from E) so |
| you won`t have to retune your guitar |
| every time. |
|______________________________________|

_____________________________________________________________________________________

INTRO:

----------------------------------------------------------------
----------------------------------------------------------------
----------------------------------------------------------------
--------5---------------5---------------5---------------5-------
5---5-----------5---5-----------5---5-----------5---5-----------
--3---3---3-3-3---3---3---3-3-3---3---3---3-3-3---3---3---3-3-3-


----------------------------------------------------------------
----------------------------------------------------------------
----------------------------------------------------------------
--------5---------------5---------------5---------------5-------
5---5-----------5---5-----------5---5-----------5---5-----------
--3---3---3-3-3---3---3---3-3-3---3---3---3-3-3---3---3---3-3-3-


----------------------------------------------------------------
----------------------------------------------------------------
----------------------------------------------------------------
--------5---------------6---------------8---------------8-------
5---5-----------5---6-----------6---8-----------8---8-----------
--3---3---3-3-3---4---4---4-4-4---6---6---6-6-6---6---6---6-6-6-



----------------------------------------------------------------
----------------------------------------------------------------
----------------------------------------------------------------
--------5---------------6---------------8---------------8-8-7-6-
5---5-----------5---6-----------6---8-----------8---8-----8-7-6-
--3---3---3-3-3---4---4---4-4-4---6---6---6-6-6---6---6---6-5-4-


G5 Ab5 Bb5 A5|Ab5
-----------------------------------------------------------------
-----------------------------------------------------------------
-----------------------------------------------------------------
5-5-5-5-5-5-5-5-6-6-6-6-6-6-6-6-8-8-8-8-8-8-8-8-8-8-8-8-8-8-7-6--
5-5-5-5-5-5-5-5-6-6-6-6-6-6-6-6-8-8-8-8-8-8-8-8-8-8-8-8-8-8-7-6--
3-3-3-3-3-3-3-3-4-4-4-4-4-4-4-4-6-6-6-6-6-6-6-6-6-6-6-6-6-6-5-4--


G5 Ab5 Bb5 A5|Ab5
-----------------------------------------------------------------
-----------------------------------------------------------------
-----------------------------------------------------------------
5-5-5-5-5-5-5-5-6-6-6-6-6-6-6-6-8-8-8-8-8-8-8-8-8-8-8-8-8-8-7-6--
5-5-5-5-5-5-5-5-6-6-6-6-6-6-6-6-8-8-8-8-8-8-8-8-8-8-8-8-8-8-7-6--
3-3-3-3-3-3-3-3-4-4-4-4-4-4-4-4-6-6-6-6-6-6-6-6-6-6-6-6-6-6-5-4--

____________________

VERSE:

G5 Ab5 Bb5 A5|Ab5
-----------------------------------------------------------------
-----------------------------------------------------------------
-----------------------------------------------------------------
5-5-5-5-5-5-5-5-6-6-6-6-6-6-6-6-8-8-8-8-8-8-8-8-8-8-8-8-8-8-7-6--
5-5-5-5-5-5-5-5-6-6-6-6-6-6-6-6-8-8-8-8-8-8-8-8-8-8-8-8-8-8-7-6--
3-3-3-3-3-3-3-3-4-4-4-4-4-4-4-4-6-6-6-6-6-6-6-6-6-6-6-6-6-6-5-4--


-repeat 4 times

____________________

CHORUS 1:

G5 F#5 Bb5 E5
----------------------------------------------------------------
----------------------------------------------------------------
----------------------------------------------------------------
5-5-5-5-5-5-5-5-4-4-4-4-4-4-4-4-8-8-8-8-8-8-8-8-2-2-2-2-2-2-2-2-
5-5-5-5-5-5-5-5-4-4-4-4-4-4-4-4-8-8-8-8-8-8-8-8-2-2-2-2-2-2-2-2-
3-3-3-3-3-3-3-3-2-2-2-2-2-2-2-2-6-6-6-6-6-6-6-6-0-0-0-0-0-0-0-0-


Eb5 C5
--------------------------------
--------------------------------
8-8-8-8-8-8-8-8-5-5-5-5-5-5-5-5-
8-8-8-8-8-8-8-8-5-5-5-5-5-5-5-5-
6-6-6-6-6-6-6-6-3-3-3-3-3-3-3-3-
--------------------------------


G5 Ab5 Bb5 A5|Ab5
-----------------------------------------------------------------
-----------------------------------------------------------------
-----------------------------------------------------------------
5-5-5-5-5-5-5-5-6-6-6-6-6-6-6-6-8-8-8-8-8-8-8-8-8-8-8-8-8-8-7-6--
5-5-5-5-5-5-5-5-6-6-6-6-6-6-6-6-8-8-8-8-8-8-8-8-8-8-8-8-8-8-7-6--
3-3-3-3-3-3-3-3-4-4-4-4-4-4-4-4-6-6-6-6-6-6-6-6-6-6-6-6-6-6-5-4--


G5 Ab5 Bb5 A5|Ab5
-----------------------------------------------------------------
-----------------------------------------------------------------
-----------------------------------------------------------------
5-5-5-5-5-5-5-5-6-6-6-6-6-6-6-6-8-8-8-8-8-8-8-8-8-8-8-8-8-8-7-6--
5-5-5-5-5-5-5-5-6-6-6-6-6-6-6-6-8-8-8-8-8-8-8-8-8-8-8-8-8-8-7-6--
3-3-3-3-3-3-3-3-4-4-4-4-4-4-4-4-6-6-6-6-6-6-6-6-6-6-6-6-6-6-5-4--

____________________

CHORUS 2:


G5 F#5 Bb5 E5
----------------------------------------------------------------
----------------------------------------------------------------
----------------------------------------------------------------
5-5-5-5-5-5-5-5-4-4-4-4-4-4-4-4-8-8-8-8-8-8-8-8-2-2-2-2-2-2-2-2-
5-5-5-5-5-5-5-5-4-4-4-4-4-4-4-4-8-8-8-8-8-8-8-8-2-2-2-2-2-2-2-2-
3-3-3-3-3-3-3-3-2-2-2-2-2-2-2-2-6-6-6-6-6-6-6-6-0-0-0-0-0-0-0-0-


Eb5 C5
--------------------------------
--------------------------------
8-8-8-8-8-8-8-8-5-5-5-5-5-5-5-5-
8-8-8-8-8-8-8-8-5-5-5-5-5-5-5-5-
6-6-6-6-6-6-6-6-3-3-3-3-3-3-3-3-
--------------------------------


G5 Ab5 Bb5 E5
----------------------------------------------------------------
----------------------------------------------------------------
----------------------------------------------------------------
5-5-5-5-5-5-5-5-6-6-6-6-6-6-6-6-8-8-8-8-8-8-8-8-2-2-2-2-2-2-2-2-
5-5-5-5-5-5-5-5-6-6-6-6-6-6-6-6-8-8-8-8-8-8-8-8-2-2-2-2-2-2-2-2-
3-3-3-3-3-3-3-3-4-4-4-4-4-4-4-4-6-6-6-6-6-6-6-6-0-0-0-0-0-0-0-0-


Eb5 C5 G5
------------------------------------------
------------------------------------------
8-8-8-8-8-8-8-8-5-5-5-5-5-5-5-5-----------
8-8-8-8-8-8-8-8-5-5-5-5-5-5-5-5-5-5-5-5-5-
6-6-6-6-6-6-6-6-3-3-3-3-3-3-3-3-5-5-5-5-5-
--------------------------------3-3-3-3-3-

___________________

SOLO:

Rythem guitar-

----------------------------------------------------------------
----------------------------------------------------------------
----------------------------------------------------------------
--------5---------------6---------------8---------------8-------
5---5-----------5---6-----------6---8-----------8---8-----------
--3---3---3-3-3---4---4---4-4-4---6---6---6-6-6---6---6---6-5-4-
*

-repeat 4 times
*lead guitar goes in from here at the 2 time

Lead guitar-

----------------------------------------------------
----------------------------------------------------
3/10^12^10-7----------------12^13-10^12^10-10^12^10-
----------------------13----------------------------
-------------10-10/11----11-------------------------
----------------------------------------------------


--------------------------------------13----------
8-8^9^8-8/9/108-11-11^13^11-11-11-11----11-------
--------------------------------------------10----
--------------------------------------------------
--------------------------------------------------
--------------------------------------------------

____________________

ENDING:


----------------------------------------------------------------
----------------------------------------------------------------
----------------------------------------------------------------
--------5---------------5---------------5---------------5-------
5---5-----------5---5-----------5---5-----------5---5-----------
--3---3---3-3-3---3---3---3-3-3---3---3---3-3-3---3---3---3-3-3-


----------------------------------------------------------
----------------------------------------------------------
----------------------------------------------------------
--------5---------------5---------------5---------------5-
5---5-----------5---5-----------5---5-----------5---5-----
--3---3---3-3-3---3---3---3-3-3---3---3---3-3-3---3---3---

_____________________________________________________________________________________

Queens of the Stone Age
Avon
Queens of the Stone Age
***tabbed by Daniel Shemer (dsh)***
_____________________________________________________________________________________