Stop Censorship
 
 

 
 1-9 a b c d e f g h i j k l m n o p q r s t u v w x y z
   Queens Of The Stone Age - Avon Tab    

Band: Queens of the Stone Age (www.QOTSA.com)
Written By: Josh Homme
Song: Avon
Album: Queens of the Stone Age
Tuning(low-to-high):
Josh most likely plays it down 2 full steps,
But I play it this way, I`ll show you this way
(down 1/2 step) Eb Ab Db Gb Bb Eb

Key: / = slide
h = hammer-on
p = pull-off
b = bend
r = release
* = natural harmonic
( ) = ghost note
x = mute note
~ = vibrato
^ = let ring
# = stompbox on/off
Tab by: Keith Dillon guitarhero1@lycos.com

(down 1/2 step) Eb Ab Db Gb Bb Eb

Intro:
======

||------------------------------------------------------------------||
||------------------------------------------------------------------||
||------------------------------------------------------------------||
||---------6---------------6---------------6---------------6--------|| ||-6---6-----------6---6-----------6---6-----------6---6------------||
||---4---4---4-4-4---4---4---4-4-4---4---4---4-4-4---4---4---4-4-4--||

|--------------------------------------------------------------------|
|--------------------------------------------------------------------|
|--------------------------------------------------------------------|
|----------6---------------7---------------9---------------9---------|
|--6---6-----------6---7-----------7---9-----------9---9-------------|
|----4---4---4-4-4---5---5---5-5-5---7---7---7-7-7---7---7---7-7-7--|

|--------------------------------------------------------------------|
|--------------------------------------------------------------------|
|--------------------------------------------------------------------|
|----------6---------------7---------------9---------------9-9-8-7---|
|--6---6-----------6---7-----------7---9-----------9---9-----9-8-7---|
|----4---4---4-4-4---5---5---5-5-5---7---7---7-7-7---7---7---7-6-5---|

||------------------------------------------------------------------||
||------------------------------------------------------------------||
||------------------------------------------------------------------||
||-6-6-6-6-6-6-6-6-7-7-7-7-7-7-7-7-9-9-9-9-9-9-9-9-9-9-9-9-9-9-8-7--|| ||-6-6-6-6-6-6-6-6-7-7-7-7-7-7-7-7-9-9-9-9-9-9-9-9-9-9-9-9-9-9-8-7--||
||-4-4-4-4-4-4-4-4-5-5-5-5-5-5-5-5-7-7-7-7-7-7-7-7-7-7-7-7-7-7-6-5--||


Verse:
======

I see you go through a park in a haze
I don`t listen for traffic going the same way
A simple system yeah
I string em up I cut em down dare I say
||------------------------------------------------------------------||
||------------------------------------------------------------------||
||------------------------------------------------------------------||
||-6-6-6-6-6-6-6-6-7-7-7-7-7-7-7-7-9-9-9-9-9-9-9-9-9-9-9-9-9-9-8-7--|| ||-6-6-6-6-6-6-6-6-7-7-7-7-7-7-7-7-9-9-9-9-9-9-9-9-9-9-9-9-9-9-8-7--||
||-4-4-4-4-4-4-4-4-5-5-5-5-5-5-5-5-7-7-7-7-7-7-7-7-7-7-7-7-7-7-6-5--||


Chorus: (let all notes ring)
============================

tu-tu-tu-tu-tu tu-tu-tu-tu-tu
|-----------------------------------7--------------------------------|
|-------------------------(7~)------7--------------------------------|
|-----------------------------------8-8------------------------------|
|--6-----------65-5------------5/9-9-9--------93-3------------3-x--|
|--6-----------65-5------------5/9-9-9--------93-3------------3-x--|
|--4-----------43-3------------3/7-7-7--------71-1------------1-x--|

tu-tu-tu-tu-tu
|--------------------------------------------------------------------|
|-------------------------(7~)---------------------------------------|
|--------------------6----------6------------------------------------|
|--2-------------2/6-6-6--------6---6---6---6---6--7---7---7---7-----|
|--2-------------2/4-4-4--------4-0-6---6---6---6--7---7---7---7-----|
|--0--------------------------------4---4---4---4--5---5---5---5-----|

|-----------------------------------|
|-----------------------------------|
|-----------------------------------|
|--9-9-9-9-9-9-9-9-9-9-9-9-9-9-8-7--|
|--9-9-9-9-9-9-9-9-9-9-9-9-9-9-8-7--|
|--7-7-7-7-7-7-7-7-7-7-7-7-7-7-6-5--|

|--------------------------------------------------------------------|
|--------------------------------------------------------------------|
|--------------------------------------------------------------------|
|--6-6-6-6-6-6-6-6-7-7-7-7-7-7-7-7-9-9-9-9-9-9-9-9-9-9-9-9-9-9-8-7---|
|--6-6-6-6-6-6-6-6-7-7-7-7-7-7-7-7-9-9-9-9-9-9-9-9-9-9-9-9-9-9-8-7---|
|--4-4-4-4-4-4-4-4-5-5-5-5-5-5-5-5-7-7-7-7-7-7-7-7-7-7-7-7-7-7-6-5---|


Verse 2:
========

A perfect vision some simple ways to let you know
Free range humans all cooped up, naked clone
Is playing lame yeah
I string em up I cut em down dare I say
||------------------------------------------------------------------||
||------------------------------------------------------------------||
||------------------------------------------------------------------||
||-6-6-6-6-6-6-6-6-7-7-7-7-7-7-7-7-9-9-9-9-9-9-9-9-9-9-9-9-9-9-8-7--||
||-6-6-6-6-6-6-6-6-7-7-7-7-7-7-7-7-9-9-9-9-9-9-9-9-9-9-9-9-9-9-8-7--||
||-4-4-4-4-4-4-4-4-5-5-5-5-5-5-5-5-7-7-7-7-7-7-7-7-7-7-7-7-7-7-6-5--||


Chorus: (let all notes ring, parenthesis notes is 2nd guitar)
============================

tu-tu-tu-tu-tu
|-----------------------------------7--------------------------------|
|-----------------------------------7--------------------------------|
|-----------------------------------8-8------------------------------|
|--6-----------65-5-5-5-5-5----5/9-9-9--------93-3-3-3-3-3----3-x--|
|--6-----------65-5-5-5-5-5----5/9-9-9--------93-3-3-3-3-3----3-x--|
|--4-----------43-3-3-3-3-3----3/7-7-7--------71-1-1-1-1-1----1-x--|

tu-tu-tu-tu-tu tu-tu-tu-tu-tu
|--------------------------------------------------------------------|
|-------------------------(7~)---------------------------------------|
|--------------------6-6-6-6-6--6------------------------------------|
|--2-2-2-2-2-----2/6-6-6-6-6-6--6---6-6-6-6-6-6-6/7-7-7-7-7-7---7/---|
|--2-2-2-2-2-----2/4-4-4-4-4-4--4-0-6-6-6-6-6-6-6/7-7-7-7-7-7---7/---|
|--0-0-0-0-0------------------------4-4-4-4-4-4-4/5-5-5-5-5-5---5/---|

tu-tu-tu-tu-tu tu-tu-tu-tu-tu
|--------------------------------------------------------------------|
|--7-7--------------------(7~)--------(9)--------(7)-----------------|
|--8-8-8-8-8---------------------------9-9-9-9--96-6-6-6-6-6-6-6-6--|
|--9-9-9-9-9------93-3-3-3-3-3----3/9-9-9-9-9--96-6-6-6-6-6-6-6-6--|
|--9-9-9-9-9------93-3-3-3-3-3----3/7-7-7-7-7--74-4-4-4-4-4-4-4-4--|
|--7-7-7-7-7------71-1-1-1-1-1----1---------------------------------|

|--------------------------------------------------------------------|
|--------------------------------------------------------------------|
|--------------------------------(drum fill)-------------------------|
|--6-6-6-6-6--------------------------------------------------------|
|--6-6-6-6-6--------------------------------------------------------|
|--4-4-4-4-4--------------------------------------------------------|

|--------------------------------------------------------------------|
|--------------------------------------------------------------------|
|--------------------------------------------------------------------|
|----------6---------------7---------------9---------------9-9-8-7---|
|--6---6-----------6---7-----------7---9-----------9---9-----9-8-7---|
|----4---4---4-4-4---5---5---5-5-5---7---7---7-7-7---7---7---7-6-5---|


Solo:
=====

tu-tu-tu
|--------------------------------------------------------------------|
|--------------------------9~-------7~-------------------------------|
|------------------------------------------------------------2///--|
|--------------------------------------------------------------------|
|--------------------------------------------------------------------|
|--------------------------------------------------------------------|
| |
|--------------------------------------------------------------------|
|--------------------------------------------------------------------|
|--------------------------------------------------------------------|
|----------6---------------7---------------9---------------9-9-8-7---|
|--6---6-----------6---7-----------7---9-----------9---9-----9-8-7---|
|----4---4---4-4-4---5---5---5-5-5---7---7---7-7-7---7---7---7-6-5---|


|--------------------------------------------------------------------|
|--------------------------8b-----7b----r--7~----7-7br-----7~---/9---|
|-/11br--------------9-----------------------------------------------|
|-------9----------7---7---------------------------------------------|
|----------11~-------------------------------------------------------|
|--------------------------------------------------------------------|
| |
|--------------------------------------------------------------------|
|--------------------------------------------------------------------|
|--------------------------------------------------------------------|
|----------6---------------7---------------9---------------9-9-8-7---|
|--6---6-----------6---7-----------7---9-----------9---9-----9-8-7---|
|----4---4---4-4-4---5---5---5-5-5---7---7---7-7-7---7---7---7-6-5---|


|----------------------------------------------------14--------------|
|--9br-----9~-----/10--10b---r----/12-12br-12~-12-12----12-----------|
|----------------------------------------------------------11~------|
|--------------------------------------------------------------------|
|--------------------------------------------------------------------|
|--------------------------------------------------------------------|
| |
|--------------------------------------------------------------------|
|--------------------------------------------------------------------|
|--------------------------------------------------------------------|
|----------6---------------7---------------9---------------9-9-8-7---|
|--6---6-----------6---7-----------7---9-----------9---9-----9-8-7---|
|----4---4---4-4-4---5---5---5-5-5---7---7---7-7-7---7---7---7-6-5---|


Outro:
======

|--------------------------------------------------------------------|
|--------------------------------------------------------------------|
|--------------------------------------------------------------------|
|----------6---------------6---------------6---------------6---------|
|--6---6-----------6---6-----------6---6-----------6---6-------------|
|----4---4---4-4-4---4---4---4-4-4---4---4---4-4-4---4---4---4-4-4---|

|--------------------------------------------------------------------|
|--------------------------------------------------------------------|
|--------------------------------------------------------------------|
|----------6---------------6---------------6---------------6--------|
|--6---6-----------6---6-----------6---6-----------6---6-------------|
|----4---4---4-4-4---4---4---4-4-4---4---4---4-4-4---4---4-4--------|