Stop Censorship
 
 

 
 1-9 a b c d e f g h i j k l m n o p q r s t u v w x y z
   Queens Of The Stone Age - Do It Again Tab    

his is a class song and this is the first tab for it so be gentle! marsey! any comments
or anything email at marsey2k2002@aol.com or add me Marsey2k4@hotmail.com
peace

Josh Homme is a genius!



Tuning: C F Bb Eb G C

RIFF 1
|---------------------------|
|--------------------12-----|
|--------------------14^----|
|---------------------------|
|--14--14-14--14-14---------|
|--12--12-12--12-12---------|


CHORUS
|-------------------------------------------------|
|-------------------------------------------------|
|-------------------------------------------------|
|---------------------------------9--------9------|
|--7------9-----10------12--------7--------7------|
|--5---0--7---0--8---0--10--0--0----0-0--0----0---|

BRIDGE
|-------------------------------------------|
|-------------------------------------------|
|-------------------------------------------|
|-------------------------------------------|
|--10--10------7--7-----5--5---2--2-2-------|
|---8---8----0-5--5---0-3--3---0--0-0--0----|


|-----------------------------------------------|
|-----------------------------------------------|
|-----------------------------------------------|
|--10----10------7---7------5---5--2--2-2-------|
|--10----10------7---7------5---5--2--2-2-------|
|---8--0--8---0--5-0-5---0--3-0-3--0--0-0--0----|

then faster
|-----------------------------------------------------------------|
|-----------------------------------------------------------------|
|-----------------------------------------------------------------|
|--10-10-10-10-10-10--12-12-12-12-12-12--12-12-12-12--14--14-14---|
|--10-10-10-10-10-10--12-12-12-12-12-12--12-12-12-12--14--14-14---|
|---8--8--8--8--8--8--10-10-10-10-10-10--10-10-10-10--12--12-12---|

last time
|-------------------------------------------|
|------------------------------------12-----|
|------------------------------------14^----|
|--14--14-14--14-14--14-14--14-14-----------|
|--14--14-14--14-14--14-14--14-14-----------|
|--12--12-12--12-12--12-12--12-12-----------|