Stop Censorship
 
 

 
 1-9 a b c d e f g h i j k l m n o p q r s t u v w x y z
   Queens Of The Stone Age - Do It Again Tab    

Main Riff:
C|-----------------------------------------------------------------||
G|-----------------------------------------12----------------------||
Eb|-----------------------------------------14 (b)------------------||
Bb|----14----14--14-----14--14--------------------------------------||
F|----14----14--14-----14--14--------------------------------------||
C|----12----12--12-----12--12--------------------------------------||


Chorus:
C|-----------------------------------------------------------||
G|-----------------------------------------------------------||
Eb|-------------------------------------------------7-------7-||
Bb|-------7--------9-------10--------12-----2-------7-------7-||
F|-------7--------9-------10--------12-----2-------9-------9-||
C|--0(h)-5---0(h)-7---0(h)-8---0(h)-10-----0---0-------0-----||


Third Riff:
C|-----------------------------------------------------------------||
G|-----------------------------------------------------------------||
Eb|-----------------------------------------------------------------||
Bb|------10---10----------9---9----------5----7--5-----2----2--2----|| (x2)
F|------10---10----------9---9----------5----7--5-----2----2--2----||
C|-0(h)--8----8-----0(h)-7---7-----0(h)-3----5--3-----0----0--0----||