Stop Censorship
 
 

 
 1-9 a b c d e f g h i j k l m n o p q r s t u v w x y z
   Queens Of The Stone Age - Feel Good Hit Of The Summer Tab    

Intro/Verse:
e|---------------------------||
B|---------------------------||
G|---------------------------||
D|-8-8-8--8-8--8--8-8--8-8-8-||
A|-8-8-8--8-8--8--8-8--8-8-8-||
E|-6-6-6--6-6--6--6-6--6-6-6-||


Chorus:
e|----------------5b---------------------------------||
B|----------------7b---------------------------------||
G|---------------------------------------------------||
D|-8-8-8-8-8-8-8-----8-8-8-8-8-8-8-8-8-8-8-8-8-8-8-8-||
A|-8-8-8-8-8-8-8-----8-8-8-8-8-8-8-8-8-8-8-8-8-8-8-8-||
E|-6-6-6-6-6-6-6-----6-6-6-6-6-6-6-6-6h7-6-6-6-6-6-6-||


Lyrics:
Nicotine, valium, vicadin, marijuana, ecstacy and alcohol

Co-co-co-co-co-co-cocaine