Stop Censorship
 
 

 
 1-9 a b c d e f g h i j k l m n o p q r s t u v w x y z
   Queens Of The Stone Age - First It Giveth Tab    

Queens of the Stone Age - First It Giveth
Songs for the Deaf
Tuning: C-F-Bb-Eb-Ab-C
Tabbed by: Mike van Driel

note:
in this song are two guitars and they play a different thing in the verse,
you have to listen good to it in the song.
so guitar 1 plays the main part in the verse
later on guitar 2 comes in with an other part.


Intro Bas

Then the Guitar come`s in:

Pick behind the nut
---------------------------------------------------------------------------
---x-----------------------------------------------------------------------
---x-----------------------------------------------------------------------
---x-----------------------------------------------------------------------
---------------------------------------------------------------------------
---------------------------------------------------------------------------

---------------------------------------------------------------------------
---------------------------------------------------------------------------
---------------------------------------------------------------------------
---------------------------------------------------------------------------
-5-5-5-5-5-5-5-6-6-6-6-6-6-6-6---------------------------------------------
---------------------------------5-5-5-5-5-5-5-5-1-1-1-1-1-1-1-1-1---------

---------------------------------------------------------------------------
---------------------------------------------------------------------------
---------------------------------------------------------------------------
---------------------------------------------------------------------------
-5-5-5-5-5-5-3-5-6-6-6-6-6-6-5-6-8-8-8-8-8-8-8-8-8-8-8-8-8-8---------------
---------------------------------------------------------------------------

Verse 1:
---------------------------------------------------------------------------
---------------------------------------------------------------------------
---------------------------------------------------------------------------
---------------------------------------------------------------------------
-5-5-5-5-5-5-3-5-6-6-6-6-6-6-6-6-5-6---------------------------------------
----------------------------------------5-5-5-5-5-5-3-5-1-1-1-1-1-1-1-1-1--

---------------------------------------------------------------------------
---------------------------------------------------------------------------
---------------------------------------------------------------------------
---------------------------------------------------------------------------
-5-5-5-5-5-5-3-5-6-6-6-6-6-6-5-6-8-8-8-8-8-8-8-8---------------------------
--------------------------------------------------5-5-5-5-5-5-5-5-5-5------

---------------------------------------------------------------------------
---------------------------------------------------------------------------
---------------------------------------------------------------------------
---------------------------------------------------------------------------
-5-5-5-5-5-5-3-5-6-6-6-6-6-6-6-6-5-6---------------------------------------
----------------------------------------5-5-5-5-5-5-3-5-1-1-1-1-1-1-1-1-1--

---------------------------------------------------------------------------
---------------------------------------------------------------------------
---------------------------------------------------------------------------
---------------------------------------------------------------------------
-5-5-5-5-5-5-3-5-6-6-6-6-6-6-6-6-5-6---------------------------------------
----------------------------------------5-5-5-5-5-5-5-5-5-5-5-5-5-5--------

Then a second guitar comes in:

---------------------------------------------------------------------------
---------------------------------------------------------------------------
---------------------------------------------------------------------------
--4-4-4-4-4-4-4-2-4-5-5-5-5-5-5-5-5-4-5------------------------------------
-----------------------------------------7-7-7-7-7-7-7---------------------
--------------------------------------------------------5-5-5-5-5-5-5------

---------------------------------------------------------------------------
---------------------------------------------------------------------------
---------------------------------------------------------------------------
--4-4-4-4-4-4-4-4-5-5-5-5-5-5-5-5-5--7-7-7-7-7-7-7-7-----------------------
---------------------------------------------------------------------------
---------------------------------------------------------------------------

Then: Guitar 1

--------------------------------------------------------------------------------
--------------------------------------------------------------------------------
--------------------------------------------------------------------------------
----------------------------------------------------7-7-7-7-7-7-8-8-8-8-8-8-8-10
-5-5-5-5-5-5-3-5-6-6-6-6-6-6-6-6-5-6--------------------------------------------
-------------------------------------5-5-5-5-5-5-5------------------------------

---------------------------------------------------------------------------
---------------------------------------------------------------------------
---------------------------------------------------------------------------
---------------------------------------------------------------------------
-5-5-5-5-5-5-3-5-6-6-6-6-6-6-6-6-5-6---------------------------------------
----------------------------------------5-5-5-5-5-5-5-5-5-5-5-5-5-5--------

second guitar plays:

-------------------------------------------------------------------------------
-------------------------------------------------------------------------------
-------------------------------------------------------------------------------
-4-4-4-4-4-4-4-4-5-5-5-5-5-5-5-5-5-7-7-7-7-7-7-11-11-11-11-11-12-12-12-12-12-14
-------------------------------------------------------------------------------
-------------------------------------------------------------------------------

---------------------------------------------------------------------------
---------------------------------------------------------------------------
---------------------------------------------------------------------------
--4-4-4-4-4-4-4-2-4-5-5-5-5-5-5-5-5-4-5--7-7-7-7-7-7-7-7-------------------
---------------------------------------------------------------------------
---------------------------------------------------------------------------


Chorus: Look fore the rhythm
---------------------------------------------------------------------------
---------------------------------------------------------------------------
-7-7-5h7-5h7-7-7-7-7----10-10-10-10-8h10-8h10-10-10------------------------
-7-7-5h7-5h7-7-7-7-7----10-10-10-10-8h10-8h10-10-10------------------------
-5-5-5---5---5-5-5-5-----8--8--8--8--8-8--8-8--8--8-------------------------
---------------------------------------------------------------------------

---------------------------------------------------------------------------
---------------------------------------------------------------------------
---------------------------------------------------------------------------
-8-8-8-8-8--5-5-5-5-5-5-5--------------------------------------------------
-8-8-8-8-8--5-5-5-5-5-5-5--------------------------------------------------
-6-6-6-6-6--3-3-3-3-3-3-3--------------------------------------------------

Listen for the rhythm

Interlude (Acoustic):
---------------------------------------------------------------------------
-6-6-6-6-6-6-6-8-8-8-8-----------------10-10-10-10-10----------------------
-7-7-7-7-7-7-7-8-8-8-8----6-6-6-6-6-6--10-10-10-10-10----------------------
-7-7-7-7-7-7-7-8-8-8-8----7-7-7-7-7-7--10-10-10-10-10----------------------
-5-5-5-5-5-5-5-6-6-6-6----7-7-7-7-7-7--8--8--8--8--8-----------------------
--------------------------5-5-5-5-5-5--8--8--8--8--8-----------------------

then: (Lead)

---------------------------------------------------------------------------
---/10~--8h10--8~------------------/10~--8h10--8--/14~---------------------
--------------------/9--10p9/7---------------------------------------------
---------------------------------------------------------------------------
---------------------------------------------------------------------------
---------------------------------------------------------------------------

Pick behind the nut
---------------------------------------------------------------------------
---x-----------------------------------------------------------------------
---x-----------------------------------------------------------------------
---x-----------------------------------------------------------------------
---------------------------------------------------------------------------
---------------------------------------------------------------------------

Then back to Verse

Then you hear this when one line is over (listen in the song):

---------------------------------------------------------------------------
---6h7-0-h6-------------------------------------------------------------------
---------------------------------------------------------------------------
---------------------------------------------------------------------------
---------------------------------------------------------------------------
---------------------------------------------------------------------------

Then back to Chorus:

Chorus: Look fore the rhythm
---------------------------------------------------------------------------
---------------------------------------------------------------------------
-7-7-7-7-5h7-5h7-7-7----10-10-10-10-8h10-8h10-10-10------------------------
-7-7-7-7-5h7-5h7-7-7----10-10-10-10-8h10-8h10-10-10------------------------
-5-5-5-5-5---5---5-5----8--8--8--8--8-8--8-8--8--8-------------------------
---------------------------------------------------------------------------

---------------------------------------------------------------------------
---------------------------------------------------------------------------
---------------------------------------------------------------------------
-8-8-8-8-8--5-5-5-5-5-5-5--------------------------------------------------
-8-8-8-8-8--5-5-5-5-5-5-5--------------------------------------------------
-6-6-6-6-6--3-3-3-3-3-3-3--------------------------------------------------

then:
i`m not sure about the last chord, but it goes higher at the end.
---------------------------------------------------------------------------
---------------------------------------------------------------------------
-7-7-7-7-7-7-7-7--12-12-12-14-14-14-14-14----------------------------------
-7-7-7-7-7-7-7-7--12-12-12-14-14-14-14-12----------------------------------
-5-5-5-5-5-5-5-5--10-10-10-12-12-12-12-12----------------------------------
---------------------------------------------------------------------------

---------------------------------------------------------------------------
---------------------------------------------------------------------------
-----------------6-6-6-6-6-6-6---------------------------------------------
--8-8-8-8-8-8-8--6-6-6-6-6-6-6---------------------------------------------
--8-8-8-8-8-8-8--4-4-4-4-4-4-4---------------------------------------------
--6-6-6-6-6-6-6------------------------------------------------------------

Outro:

---------------------------------------------------------------------------
---------------------------------------------------------------------------
-----------------6-6-6-6-6-6-6---------------------------------------------
--8-8-8-8-8-8-8--6-6-6-6-6-6-6---------------------------------------------
--8-8-8-8-8-8-8--4-4-4-4-4-4-4---------------------------------------------
--6-6-6-6-6-6-6------------------------------------------------------------

Acoustic

---------------------------------------------------------------------------
-6-6-6-6-6-6-6-8-8-8-8-----------------------------------------------------
-7-7-7-7-7-7-7-8-8-8-8-----------------------------------------------------
-7-7-7-7-7-7-7-8-8-8-8-----------------------------------------------------
-5-5-5-5-5-5-5-6-6-6-6-----------------------------------------------------
---------------------------------------------------------------------------

that`s all,

this is a great tab!!

Enjoy it!!

For any proublems mail me at: MikevDriel@hotmail.com