Stop Censorship
 
 

 
 1-9 a b c d e f g h i j k l m n o p q r s t u v w x y z
   Queens Of The Stone Age - Give The Mule What He Wants Tab    


check my band apace
Opening Lead/Chorus Lead:
C|--11--9--11p9--------||
G|--------------9~~~~--||
Eb|---------------------||
Bb|---------------------||
F|---------------------||
C|---------------------||


Opening/Main Riff: (variations on this make up the song)
C|--------------------------------------------||
G|--------------------------------------------||
Eb|--------------------------------------------||
Bb|-2---14--13-14-13-11--13-13-13-13-11--13-11-||
F|-2---14--13-14-13-11--11-11-11-11-11--11-11-||
C|-0---12--11-12-11--9---9--9--9--9--9---9--9-||


Main Riff:
C|-----------------------------------------------------------||
G|-----------------------------------------------------------||
Eb|-----------------------------------------------------------||
Bb|-----------------------------------------------------------||
F|-2----2-11--11--11-2---2-11--11--11-2--9-11-11--11-------2-||
C|-0----0--9---9---9-0---0--9---9---9-0--------9---9--9-11-0-||