Stop Censorship
 
 

 
 1-9 a b c d e f g h i j k l m n o p q r s t u v w x y z
   Queens Of The Stone Age - Go With The Flow Tab    

Queens of the Stone Age - Go With the Flow
from the album: Songs for the Deaf

**************************
* ^ - strech *
* - slide down *
* / - slide up *
**************************

the song goes in the following order:
-intro
-1st verse
-chorus
-2nd verse
-chorus
-ending

______________________________________
| NOTE: Like all Q.O.T.S.A songs this |
| one too is tuned two tones down |
| (from C), However the tabs I write |
| are for more convenient use and |
| they are tuned regulary (from E) so |
| you won`t have to retune your guitar |
| every time. |
|______________________________________|

_____________________________________________________________________________________

INTRO:

Rythem Guitar -

E5
--------------------------------
--------------------------------
--------------------------------
2-2-2-2-2-2-2-2-2-2-2-2-2-2-2-2-
2-2-2-2-2-2-2-2-2-2-2-2-2-2-2-2-
0-0-0-0-0-0-0-0-0-0-0-0-0-0-0-0-



C5 A5 E5
----------------------------------------------------------------
----------------------------------------------------------------
5-5-5-5-5-5-5-5-2-2-2-2-2-2-2-2---------------------------------
5-5-5-5-5-5-5-5-2-2-2-2-2-2-2-2-2-2-2-2-2-2-2-2-2-2-2-2-2-2-2-2-
3-3-3-3-3-3-3-3-0-0-0-0-0-0-0-0-2-2-2-2-2-2-2-2-2-2-2-2-2-2-2-2-
--------------------------------0-0-0-0-0-0-0-0-0-0-0-0-0-0-0-0-


C5 A5 E5
----------------------------------------------------------------
----------------------------------------------------------------
5-5-5-5-5-5-5-5-2-2-2-2-2-2-2-2---------------------------------
5-5-5-5-5-5-5-5-2-2-2-2-2-2-2-2-2-2-2-2-2-2-2-2-2-2-2-2-2-2-2-2-
3-3-3-3-3-3-3-3-0-0-0-0-0-0-0-0-2-2-2-2-2-2-2-2-2-2-2-2-2-2-2-2-
--------------------------------0-0-0-0-0-0-0-0-0-0-0-0-0-0-0-0-


Lead Guitar -

(going in at the first C5)

--12-14-12------------------
-----------12---13-15-13-12-
9---------------------------
----------------------------
----------------------------
----------------------------


--12-14-14^15---14^15^14-12---17^19---17^19^19^19^19^19^19-
-----------------------------------------------------------
9----------------------------------------------------------
-----------------------------------------------------------
-----------------------------------------------------------
-----------------------------------------------------------

____________________
1st VERSE:

Rythem Guitar -


C5 A5 E5
----------------------------------------------------------------
----------------------------------------------------------------
5-5-5-5-5-5-5-5-2-2-2-2-2-2-2-2---------------------------------
5-5-5-5-5-5-5-5-2-2-2-2-2-2-2-2-2-2-2-2-2-2-2-2-2-2-2-2-2-2-2-2-
3-3-3-3-3-3-3-3-0-0-0-0-0-0-0-0-2-2-2-2-2-2-2-2-2-2-2-2-2-2-2-2-
--------------------------------0-0-0-0-0-0-0-0-0-0-0-0-0-0-0-0-
*play 6 times


Lead Guitar -

after the first line:

---------------
12-13-15-13-12-
---------------
---------------
---------------
---------------

during the third line

15-----------
----------17-
-----16------
-------------
-------------
-------------

during the fifth line

-------------
-------------
17---14---16-
-------------
-------------
-------------

____________________

CHORUS:

C5 D5 E5
----------------------------------------------------------------
----------------------------------------------------------------
5-5-5-5-5-5-5-5-7-7-7-7-7-7-7-7---------------------------------
5-5-5-5-5-5-5-5-7-7-7-7-7-7-7-7-2-2-2-2-2-2-2-2-2-2-2-2-2-2-2-2-
3-3-3-3-3-3-3-3-5-5-5-5-5-5-5-5-2-2-2-2-2-2-2-2-2-2-2-2-2-2-2-2-
--------------------------------0-0-0-0-0-0-0-0-0-0-0-0-0-0-0-0-
play 4 times

____________________

2nd VERSE:

Rythem Guitar -

C5 A5 E5
----------------------------------------------------------------
----------------------------------------------------------------
5-5-5-5-5-5-5-5-2-2-2-2-2-2-2-2---------------------------------
5-5-5-5-5-5-5-5-2-2-2-2-2-2-2-2-2-2-2-2-2-2-2-2-2-2-2-2-2-2-2-2-
3-3-3-3-3-3-3-3-0-0-0-0-0-0-0-0-2-2-2-2-2-2-2-2-2-2-2-2-2-2-2-2-
--------------------------------0-0-0-0-0-0-0-0-0-0-0-0-0-0-0-0-
play 8 times


Lead Guitar -


after first line and into the second
-----------------------------
-----------------------------
---16----16-13---12---11---9-
14----14---------------------
-----------------------------
-----------------------------

during and after the forth line
15-------------------------------------------
----------17---------------------------------
-----16--------16----15^16-1412-------------
------------------14-------------14-12-------
---------------------------------------------
---------------------------------------10/12-

after the fifth line
-------
-------
9^11^9-
-------
-------
-------

during the eighth line
15-14-12-
---------
---------
---------
---------
---------

____________________

ENDING:

Rythem Guitar - play like in the chorus


Lead Guitar -
15-----------
----------17-
-----16------
-------------
-------------
-------------
play twice


15---17---16-
-------------
-------------
-------------
-------------
-------------
play 3 times


15---17---16/19-
----------------
----------------
----------------
----------------
----------------

_____________________________________________________________________________________

Queens of the Stone Age
Go With the Flow
Songs for the Deaf

***Tabbed by Daniel Shemer (dsh)***
_____________________________________________________________________________________