Stop Censorship
 
 

 
 1-9 a b c d e f g h i j k l m n o p q r s t u v w x y z
   Queens Of The Stone Age - Go With The Flow Tab    

Band: Queens of the Stone Age (www.QOTSA.com)
Written By: Josh Homme and Nick Oliveri
Song: Go With The Flow
Album: Songs for the Deaf (Interscope Records)
Tuning(low-to-high): (down 2 full steps) C F Bb Eb G c
Key: / = slide
trem.= tremelo picking
fdbk.= feedback
adlib= vocal ad-lib
h = hammer-on
p = pull-off
b = bend
r = release bend
* = natural harmonic
( ) = ghost note (fret, don`t pick)
~ = vibrato

ORIGINALLY!!!Tabbed by: Keith Dillon guitarhero420@msn.com

Don`t be fooled by those in standard tuning, this is the real way!

16 beats per bar, the rhythm guitar riff played thoughout each
section (verse, chorus, etc.) is noted at the first bar except
at the very last bar.


Intro:

|------------------------------------------16/19-16~--------------|
|--------------------------------------/17---------------------16-|
|-----------------------------------------------------------------|
|-----------------------------------------------------------------|
|-----------------------------------------------------------------|
|-----------------------------------------------------------------|
| |
|-----------------------------------------------------------------|
|-----------------------------------------------------------------|
|---------------------------------9-9-9-9-9-9-9-9-6-6-6-6-6-6-6-6-|
|-6-6-6-6-6-6-6-6-6-6-6-6-6-6-6-6-9-9-9-9-9-9-9-9-6-6-6-6-6-6-6-6-|
|-6-6-6-6-6-6-6-6-6-6-6-6-6-6-6-6-7-7-7-7-7-7-7-7-4-4-4-4-4-4-4-4-|
|-4-4-4-4-4-4-4-4-4-4-4-4-4-4-4-4---------------------------------|

|------------------------------------------16-18-19~--------18----|
|-16~-------------16-17-19-17-16~------/16------------------------|
|-----------------------------------------------------------------|
|-----------------------------------------------------------------|
|-----------------------------------------------------------------|
|-----------------------------------------------------------------|


Verse 1:
She said "I`ll throw myself away"
|-22b~------------22b~--------(16)--------------------------------|
|------------------------------16--------------------------------|
|-----------------------------------------------------------------|
|-----------------------------------------------------------------|
|-----------------------------------------------------------------|
|-----------------------------------------------------------------|
| |
|-----------------------------------------------------------------|
|-----------------------------------------------------------------|
|---------------------------------9-9-9-9-9-9-9-9-6-6-6-6-6-6-6-6-|
|-6-6-6-6-6-6-6-6-6-6-6-6-6-6-6-6-9-9-9-9-9-9-9-9-6-6-6-6-6-6-6-6-|
|-6-6-6-6-6-6-6-6-6-6-6-6-6-6-6-6-7-7-7-7-7-7-7-7-4-4-4-4-4-4-4-4-|
|-4-4-4-4-4-4-4-4-4-4-4-4-4-4-4-4---------------------------------|

"They`re just photos after all"
|-----------------------------------------------------------------|
|-----------------16-17-19-17-16~--------------------------------|
|-----------------------------------------------------------------|
|-----------------------------------------------------------------|
|-----------------------------------------------------------------|
|-----------------------------------------------------------------|

I can`t make you hang around
|-----------------------------19~---------------------------------|
|--------------------------------------------16~------------------|
|-----------------------------------------------------------------|
|-----------------------------------------------------------------|
|-----------------------------------------------------------------|
|-----------------------------------------------------------------|

I can`t wash you off my skin
|-16~-------------------------------------------------------------|
|-----------------------------------------------------------------|
|-----------------------------------------------------------------|
|-----------------------------------------------------------------|
|-----------------------------------------------------------------|
|-----------------------------------------------------------------|

Outside the frame,
|-----------------------------------------------------------------|
|-----------------------------17~------------14~------------------|
|-----------------------------------------------------------------|
|-----------------------------------------------------------------|
|-----------------------------------------------------------------|
|-----------------------------------------------------------------|

is what we`re leavin` out You won`t remember, anyway
|-----------------------------------------------------------------|
|-16~------------------------------------------------------------|
|-----------------------------------------------------------------|
|-----------------------------------------------------------------|
|-----------------------------------------------------------------|
|-----------------------------------------------------------------|


Chorus:
I can go with the
|---------------------------------14~-----------------------------|
|---------------------------------12~------------14~--------------|
|------------------------------------------------15~--------------|
|-----------------------------------------------------------------|
|-----------------------------------------------------------------|
|-----------------------------------------------------------------|
| |
|-----------------------------------------------------------------|
|-----------------------------------------------------------------|
|---------------------------------9-9-9-9-9-9-9-91111111111111111-|
|-6-6-6-6-6-6-6-6-6-6-6-6-6-6-6-6-9-9-9-9-9-9-9-91111111111111111-|
|-6-6-6-6-6-6-6-6-6-6-6-6-6-6-6-6-7-7-7-7-7-7-7-7-9-9-9-9-9-9-9-9-|
|-4-4-4-4-4-4-4-4-4-4-4-4-4-4-4-4-7-7-7-7-7-7-7-7-9-9-9-9-9-9-9-9-|

flow (adlib) don`t say it doesn`t matter any-
|---------------------------------14~-----------------------------|
|-16~-----------------------------12~------------14~--------------|
|-17~--------------------------------------------15~--------------|
|-----------------------------------------------------------------|
|-----------------------------------------------------------------|
|-----------------------------------------------------------------|

more (been around to know) I can go with the
|---------------------------------14~-----------------------------|
|-16~-----------------------------12~------------14~--------------|
|-17~--------------------------------------------15~--------------|
|-----------------------------------------------------------------|
|-----------------------------------------------------------------|
|-----------------------------------------------------------------|

flow I can go you believe it in your
|---------------------------------14~-----------------------------|
|-16~-----------------------------12~------------14~--------------|
|-17~--------------------------------------------15~--------------|
|-----------------------------------------------------------------|
|-----------------------------------------------------------------|
|-----------------------------------------------------------------|


Verse 2:
head It`s so safe to play along
|-----------------------------------------------------------------|
|-16~-------------------------------------------------------------|
|-17~-------------------------------------------------------------|
|-----------------------------------------------------------------|
|-----------------------------------------------------------------|
|-----------------------------------------------------------------|
| |
|-----------------------------------------------------------------|
|-----------------------------------------------------------------|
|---------------------------------9-9-9-9-9-9-9-9-6-6-6-6-6-6-6-6-|
|-6-6-6-6-6-6-6-6-6-6-6-6-6-6-6-6-9-9-9-9-9-9-9-9-6-6-6-6-6-6-6-6-|
|-6-6-6-6-6-6-6-6-6-6-6-6-6-6-6-6-7-7-7-7-7-7-7-7-4-4-4-4-4-4-4-4-|
|-4-4-4-4-4-4-4-4-4-4-4-4-4-4-4-4---------------------------------|

Little soldiers in a row
|-----------------------------------------------------------------|
|-----------------16----1613~----12~---------(1211)~------------|
|-----------------------------------------------------------------|
|-------------/18----18-------------------------------------------|
|-----------------------------------------------------------------|
|-----------------------------------------------------------------|

Fallin` in and out of love
|-----------------------------------------------------------------|
|-(9)~-----------------------------------------------------------|
|-----------------------------------------------------------------|
|-----------------------------------------------------------------|
|-----------------------------------------------------------------|
|-----------------------------------------------------------------|

(ad-lib) Something sweet to throw away
|---------------------------------19~-----------------------------|
|-------------------------------------------------16~-------------|
|-----------------------------------------------------------------|
|-----------------------------------------------------------------|
|-----------------------------------------------------------------|
|-----------------------------------------------------------------|

I want something good to die for
|-16~---1614-----------------------------------------------------|
|----16-------14/16~----------------------------------------------|
|-------------------1311-----------------------------------------|
|-------------------------119------------------------------------|
|------------------------------9/11~-----------------------------|
|-----------------------------------------------------------------|

To make it beautiful to live
|-----------------------------------------------------------------|
|-----------------------------------------------------------------|
|-13b------------------r(13)~------------------------------------|
|-----------------------------------------------------------------|
|-----------------------------------------------------------------|
|-----------------------------------------------------------------|

I want a new mistake
|-4-4-----4-4-----------------------------------------------------|
|-----------------------------------------------------------------|
|-----------------------------------------------------------------|
|-----------------------------------------------------------------|
|-----------------------------------------------------------------|
|-----------------------------------------------------------------|

Loose is more than hesitate You believe it in your head
|---------------------------------19~----------18~----fdbk.-------|
|---------------------------------------------(19)~---------------|
|-----------------------------------------------------------------|
|-----------------------------------------------------------------|
|-----------------------------------------------------------------|
|-----------------------------------------------------------------|


===========
Play Chorus
===========

Outro:
You believe it in your head
|-16~-----------------------------19~----------18~----------------|
|-16~-------------------------------------------------------------|
|-15~-------------------------------------------------------------|
|-----------------------------------------------------------------|
|-----------------------------------------------------------------|
|-----------------------------------------------------------------|
| |
|-----------------------------------------------------------------|
|-----------------------------------------------------------------|
|---------------------------------9-9-9-9-9-9-9-91111111111111111-|
|-6-6-6-6-6-6-6-6-6-6-6-6-6-6-6-6-9-9-9-9-9-9-9-91111111111111111-|
|-6-6-6-6-6-6-6-6-6-6-6-6-6-6-6-6-7-7-7-7-7-7-7-7-9-9-9-9-9-9-9-9-|
|-4-4-4-4-4-4-4-4-4-4-4-4-4-4-4-4-7-7-7-7-7-7-7-7-9-9-9-9-9-9-9-9-|

You believe it in your head
|-16~-----------------------------19~----------18~----------------|
|-----------------------------------------------------------------|
|-----------------------------------------------------------------|
|-----------------------------------------------------------------|
|-----------------------------------------------------------------|
|-----------------------------------------------------------------|

(adlib)
|-16~-----------------------------19~----------21~----------------|
|----------------------------------------------trem.--------------|
|-----------------------------------------------------------------|
|-----------------------------------------------------------------|
|-----------------------------------------------------------------|
|-----------------------------------------------------------------|

(adlib)
|-18~-----------------------------19~----------21~----------------|
|-trem.---------------------------trem.--------trem.--------------|
|-----------------------------------------------------------------|
|-----------------------------------------------------------------|
|-----------------------------------------------------------------|
|-----------------------------------------------------------------|

(adlib)
|-18~-----------------------------19~----------21~----------------|
|-trem.---------------------------trem.--------trem.--------------|
|-----------------------------------------------------------------|
|-----------------------------------------------------------------|
|-----------------------------------------------------------------|
|-----------------------------------------------------------------|

(adlib)
|-18~-----------------------------19~----------21~----------------|
|-trem.---------------------------trem.--------trem.--------------|
|-----------------------------------------------------------------|
|-----------------------------------------------------------------|
|-----------------------------------------------------------------|
|-----------------------------------------------------------------|

(adlib)
|-21b---------------------------------r21------------------------|
|-trem.-----------------------------------------------------------|
|----------------------------------------------radio fuzz---------|
|-----------------------------------------------------------------|
|-----------------------------------------------------------------|
|-----------------------------------------------------------------|
| |
|-----------------------------------------------------------------|
|-----------------------------------------------------------------|
|-13-13-13-13-13-13-13-13-13-13---13---13-----radio fuzz---------|
|-13-13-13-13-13-13-13-13-13-13---13---13------------------------|
|-11-11-11-11-11-11-11-11-11-11-0-11-0-11------------------------|
|-11-11-11-11-11-11-11-11-11-11-0-11-0-11------------------------|