Stop Censorship
 
 

 
 1-9 a b c d e f g h i j k l m n o p q r s t u v w x y z
   Queens Of The Stone Age - God Is In The Radio solo Tab    

Here`s the first guitar solo on God is in the Radio. I think one slide is out but its much more accurate than others ive seen. Its in standard tuning. Use a fuzz effect (maybe a fuzzface?) and do it in style.This whole solo is Pentatonic apart from one bend at the seventh fret on the D string. QOTSA RULE!

-------------------------------------------------------
8-^-8-~-~----------------------------------------------
----------5-7---5---5-7---5-7-^-7-^----5-7-------------
--------------7---7-----7------------------7-5-7-^-r-7-
-------------------------------------------------------
-------------------------------------------------------

--------------------------------------------------15^--------
------------------------13--1315^-15^---1513--1315----^-15-13
5---5-7-9-12--1214--1214--14----------------14---------------
--7---------14----14-----------------------------------------
-------------------------------------------------------------
-------------------------------------------------------------

--------------------------1715--1517----------------------
15^-13-13--13/-17-15-17-15----17----15-13-15-13/-17-15-13
---------14-----------------------------------------------
----------------------------------------------------------
----------------------------------------------------------
----------------------------------------------------------

------------------------------------
15--13------------------------------
--14--14-12-14----------------------
--------------12-10-12-12^-10~-~-~-
------------------------------------
------------------------------------