Stop Censorship
 
 

 
 1-9 a b c d e f g h i j k l m n o p q r s t u v w x y z
   Queens Of The Stone Age - I Think I Lost My Headache Tab    


song:I Think I Lost My Headache
Tuning - C F Bb Eb G C
tabber:enjoyincubus69
another phat song from qotsa

intro/outro:
---------------------------------------|
---------------------------------------|
---------------------------------------|
------13--11--------11--10-------------|
---12--------12--10--------12-----12---|
-------------------------------13------|

verse rhythm: end on:
-----------------------------|--------|
-----------------------------|--------|
-----------------------------|---15---|
---7--7-7--7-7--8-8--11-11---|---15---|
---7--7-7--7-7--8-8--11-11---|---13---|
---5--5-5--5-5--6-6---9--9---|--------|

verse lead 1:
-----------------|
---14----fbr17---|
-----------------|
-----------------|
-----------------|
-----------------|

fill 1:
-----------------|
-----------------|
-----------------|
-----------------|
---4-5-4-----4---|
---------7-6-----|

fill 2:
-----------------|
-----------------|
-----------------|
-----------------|
---4-5-----4-5---|
-------7-6-------|

chorus:
------------------------------------|--------|
------------------------------------|--------|
--------14------------13-------10---|---15---|
-----14----14------------13---------|---15---|
---12----------12--11--------8------|---13---|
------------------------------------|--------|
enjoy