Stop Censorship
 
 

 
 1-9 a b c d e f g h i j k l m n o p q r s t u v w x y z
   Queens Of The Stone Age - Know One Knows Tab    

Artist:Queens of the Stone Age
Song:No One Knows
Tabbed:Brendan999
Tuning: Drop D
h=hammer
s=slide
st.=strech
p=pull off
---------------------------------------------------------------
----------5---------5--------5--------5----------------------
----------6---------6--------6--------6----------------------
----------6---------6--------6--------6----------------------
----------4---------4--------4--------4----------------------
---------------------------------------------------------------


------3-----3----------1---------------------3----------3---------1-------------
------3-----3----------3----------3----------3----------3---------3----------3--
------2-----2----------2----------2----------2----------2---------2----------2
------0-----0----------0----------0----------0----------0---------0----------0
----------------------------------0------------------------------------------0
------------------------------------------------------------------------------
X 4
-------------1--------------1--------------1-------------1---3(h)--1-----------------
-------------3--------------3--------------3-------------3---------------------------
-------------2--------------2--------------2-------------2---------------------------
-------------0--------------0--------------0-------------0---------------------------
-------------------------------------------------------------------------------------
------0--------------0--------------0-------------0----------------------------------


-------------------------------------------------------------------------------------
--------2-2-2-2-2-2-2-2---6-6-6-6-6-6-6-6-----------------------------------------
--------2-2-2-2-2-2-2-2---6-6-6-6-6-6-6-6-----------------------------------------
--------2-2-2-2-2-2-2-2---6-6-6-6-6-6-6-6-----------------------------------------
--------0-0-0-0-0-0-0-0---4-4-4-4-4-4-4-4-----------------------------------------
-------------------------------------------------------------------------------------

X 2
-------------------------------------------------------------------------------------
-------------------------------------------------------------------2-2-2-2-2-2-2-2---
--------7--s--9--s--10--s--9--s--12--s--10--s--14--s--12-----------2-2-2-2-2-2-2-2---
--------X-----X-----X------X-----X------X------X------X------------2-2-2-2-2-2-2-2---
--------5-----7-----8------7-----10-----8------12-----10-----------0-0-0-0-0-0-0-0--
-------------------------------------------------------------------------------------


-------------------------------------------------------------------------------------
-------------------------------------------------------------------2-2-2-2-2-2-2-2---
---------10--s--9--s--7--s--6--s--7--s--9--s--10--s--9-------------2-2-2-2-2-2-2-2---
---------X------X-----X-----X-----X-----X-----X------X-------------2-2-2-2-2-2-2-2---
---------8------7-----5-----4-----5-----7-----8------7-------------0-0-0-0-0-0-0-0---
-------------------------------------------------------------------------------------


-------------------------------------------------------------------------------------
-------------------------------------------------------------------2-2-2-2-2-2-2-2---
--------7--s--9--s--10--s--9--s--12--s--10--s--14--s--12-----------2-2-2-2-2-2-2-2---
--------X-----X-----X------X-----X------X------X------X------------2-2-2-2-2-2-2-2---
--------5-----7-----8------7-----10-----8------12-----10-----------0-0-0-0-0-0-0-0--
-------------------------------------------------------------------------------------

Solo
-------------------------------------------------------------------------------------
---------------------------------------15-15--13-13--17-17-17--13-13-13-st-----------
--7---9-9-s--10-10-10--12-12--14-14-14-------------------------------------10-----14-
-------------------------------------------------------------------------------------
-------------------------------------------------------------------------------------
-------------------------------------------------------------------------------------



-------------------------------------------------------------------------------------
--------------------------------------------------------------------------------X4--
-12-14-12--10---12---10-12-10--9---10---9-10-9--7---9---9-10-9--7--9---[10---14-st14]
-----------------------------------------------------------------------[--12--------]
-------------------------------------------------------------------------------------
-------------------------------------------------------------------------------------

X 4
-----------------------------------[--12--p--8---------8------------]---------------
-----------------------------------[--------------10----------------]-----13--s--15
-----------------------------------[-------------------------12---10]--------------
-----------------------------------------------------------------------------------
------------------------------------------------------------------------------------
------------------------------------------------------------------------------------