Stop Censorship
 
 

 
 1-9 a b c d e f g h i j k l m n o p q r s t u v w x y z
   Queens Of The Stone Age - Leg Of Lamb Tab    

Band: Queens Of The Stone Age
Song: Leg Of Lamb
Tabbed By: JEB/,

G-----------77---------------
D--------------7-------------
A-----3-55-------55---------
E---------------------------

G-----------66---------------
D--------------6-------------
A----3--44-------44---------
E---------------------------

G----------------------------
D---------8----4-------------
A----66-----6-----6---------
E---------------------------

G----------8----6------------
D-----------8-----6----------
A---4s66----------------6---
E--------------------7------

G-------------------------------------------------------
D--------------------------------------------------------
a-------------------------------------------------------
E--10-10-10-10-10-10--8-8-8-8-8-8---9-9-9-9-99--

E--555555---666666---111111----333333----5555555--