Stop Censorship
 
 

 
 1-9 a b c d e f g h i j k l m n o p q r s t u v w x y z
   Queens Of The Stone Age - Lightning Tab    

Queens of the Stone Age - Lightning Song
from the album: Rated R


______________________________________
| NOTE: Like all Q.O.T.S.A songs this |
| one too is tuned two tones down |
| (from C), However the tabs I write |
| are for more convenient use and |
| they are tuned regulary (from E) so |
| you won`t have to retune your guitar |
| every time. |
|______________________________________|

_____________________________________________________________________________________

------------------------------------------------
------------------------------------------------
--------4-6--7--6-4---------------4-6-----------
4--6-7---------------6-7--4--6-7-------4--4---7-
--------------------------------------------7---
------------------------------------------------
*play 4 times


---------------------------------------
---------------------------------------
---------------------------------------
4--4---7--4--4---7--4--4---7--4--4---7-
-----7---------7---------7---------7---
---------------------------------------
*play 4 times


------------------------------------------------
------------------------------------------------
--------4-6--7--6-4---------------4-6-----------
4--6-7---------------6-7--4--6-7-------4--4---7-
--------------------------------------------7---
------------------------------------------------
*play 4 times


---------------------------------------
---------------------------------------
---------------------------------------
4--4---7--4--4---7--4--4---7--4--4---7-
-----7---------7---------7---------7---
---------------------------------------
*play 8 times


---------------
---------------
7-6-4-6--4-----
-----------7-6-
---------------
---------------
_____________________________________________________________________________________

Queens of the Stone Age
Lightning Song
Rated R

***Tabed by Daniel Shemer***
_____________________________________________________________________________________