Stop Censorship
 
 

 
 1-9 a b c d e f g h i j k l m n o p q r s t u v w x y z
   Queens Of The Stone Age - Lightning Song Tab    

LIGHTNING SONG
Queens of the Stone age
Album: Rated R, 2000
Tabbed by Denial Guitar (DenialGtr@hotmail.com)



Rythm guitar: strum D chord through the whole song

Lead guitar:

e|------------|-----------|------------|------------|
B|------------|-----------|------------|------------|
G|--------4-6-|-7-6-4-----|--------4-6-|------------|
D|-4--6-7-----|-------6-6-|-4--6-7-----|-4---4~-----| (x4)
A|------------|-----------|------------|---7--------|
E|------------|-----------|------------|------------|

e|------------|
B|------------|
G|------------|
D|-4---4~-----| (x4)
A|---7--------|
E|------------|

e|------------|-----------|------------|------------|
B|------------|-----------|------------|------------|
G|--------4-6-|-7-6-4-----|--------4-6-|------------|
D|-4--6-7-----|-------6-6-|-4--6-7-----|-4---4~-----| (x8)
A|------------|-----------|------------|---7--------|
E|------------|-----------|------------|------------|

e|------------|
B|------------|
G|------------|
D|-4---4~-----| (x8)
A|---7--------|
E|------------|

e|--------------|------------|
B|--------------|------------|
G|-7-6-4-6--4---|------------|
D|------------7-|-6~---------|
A|--------------|------------|
E|--------------|------------|