Stop Censorship
 
 

 
 1-9 a b c d e f g h i j k l m n o p q r s t u v w x y z
   Queens Of The Stone Age - Millionaire Tab    

Band: Queens of the Stone Age (www.QOTSA.com)
Written By: Josh Homme and Mario Lalli
Song: You Think I Ain`t Worth A Dollar, But I Feel Like A Millionaire
Album: Songs for the Deaf (Interscope Records)
Tuning(low-to-high): (down 2 full steps) C F Bb Eb G c
Key: / = slide
h = hammer-on
p = pull-off
b = bend
r = release
* = natural harmonic
( ) = ghost note
x = mute note
~ = vibrato
^ = let ring
# = stompbox on/off
Tab by: Keith Dillon guitarhero1@lycos.com


Intro (0:48):

|----------------------------------------------------------------------|
|----------------------------------------------------------------------|
|----------------------------------------------------------------------|
|----------------------------------------------------------------------|
|--10-12---------------------------10-12-------------------------------|
|--------0-0-0-0-0--0-0-0-0-0--0-0-------0-0-0-0-0--0-0-0-0-0--0-0-----|

|----------------------------------------------------------------------|
|----------------------------------------------------------------------|
|----------------------------------------------------------------------|
|----------------------------------------------------------------------|
|--10-12-----------------------------12-10-----------------------------|
|--------0-0-0-0-0--0-0-0-0-12-10-12-------0-0-0-0--0-0-0-0-0--0-0-----|


Verse (1:00):
Dead Bull with a life on the low I`ll be massive conquistador
Gimme soul or show me the door Metal heavy soft at the core
Gimme toro gimme some more Gimme toro gimme some more
Pressurized and neutralized Deep fried, gimme some more
||--------------------------------------------------------------------||
||--------------------------------------------------------------------||
||--------------------------------------------------------------------||
||--------------------------------------------------------------------||
||--10-12---------------------------10-12-----------------------------||
||--------0-0-0-0-0--0-0-0-0-0--0-0-------0-0-0-0-0--0-0-0-0-0--0-0---||


Bridge 1 (1:25):

|----------------------------------------------------------------------|
|----------------------------------------------------------------------|
|--------------------------0---------------------------------12-14b-12~|
|----------------------0-2---2-0-2~------------------12-14-12----------|
|----------------------------------------------------------------------|
|----------------------------------------------------------------------|
| |
|----------------------------------------------------------------------|
|----------------------------------------------------------------------|
|----------------------------------------------------------------------|
|---7-7-7-5-5-5-5-5-5-5-5-5-5-5-5-5-7-7-7-5-5-5-5-5-5-5-5-5-5-5-5-5----|
|---7-7-7-5-5-5-5-5-5-5-5-5-5-5-5-5-7-7-7-5-5-5-5-5-5-5-5-5-5-5-5-5----|
|---5-5-5-3-3-3-3-3-3-3-3-3-3-3-3-3-5-5-5-3-3-3-3-3-3-3-3-3-3-3-3-3----|

|----------------------------------------------------------------------|
|----------------------------------------------------------------------|
|-(12~)----------------------------------------------------------------|
|----------------------------------------------------------------------|
|---10-12---------------------------10-12------------------------------|
|---------0-0-0-0-0--0-0-0-0-0--0-0-------0-0-0-0-0--0-0-0-0-0--0-0----|

|----------------------------------------------------------------------|
|----------------------------------------------------------------------|
|----------------------------------------------------------------------|
|----------------------------------------------------------------------|
|---10-12---------------------------10-12------------------------------|
|---------0-0-0-0-0--0-0-0-0-0--0-0-------0-0-0-0-0--0-0-0-0-0--0-0----|


Verse (1:43):
Space Flunky Four on the floor Fortified with the liquor store
This one`s down, gimme some more Gimme toro gimme some more
Gimme toro gimme some more Gimme toro gimme some more
||--------------------------------------------------------------------||
||--------------------------------------------------------------------||
||--------------------------------------------------------------------||
||--------------------------------------------------------------------||
||--10-12---------------------------10-12-----------------------------||
||--------0-0-0-0-0--0-0-0-0-0--0-0-------0-0-0-0-0--0-0-0-0-0--0-0---||


Bridge 2 (2:00):

|----------------------------------------------------------------------|
|-------------------------------------------------------------15--15---|
|-------------------------0-2brp0------------------12/1412/14--14--16~|
|---------------------0-2---------2~----------12/14--------------------|
|----------------------------------------------------------------------|
|----------------------------------------------------------------------|
| |
|----------------------------------------------------------------------|
|----------------------------------------------------------------------|
|----------------------------------------------------------------------|
|---7-7-7-5-5-5-5-5-5-5-5-5-5-5-5-5-7-7-7-5-5-5-5-5-5-5-5-5-5-5-5-5----|
|---7-7-7-5-5-5-5-5-5-5-5-5-5-5-5-5-7-7-7-5-5-5-5-5-5-5-5-5-5-5-5-5----|
|---5-5-5-3-3-3-3-3-3-3-3-3-3-3-3-3-5-5-5-3-3-3-3-3-3-3-3-3-3-3-3-3----|

|----------------------------------------------------------------------|
|----------------------------------------------------------------------|
|-(16~)----------------------------------------------------------------|
|----------------------------------------------------------------------|
|-10-12---------------10/12----------------------------10/12-----------|
|-------0-0-0-0-0--0-0-----10/12-5/7-3/5-0-0-0-0-0--0-0-----10/12-5/7--|

|----------------------------------------------------------------------|
|----------------------------------------------------------------------|
|-------------------12/14----------------------------------------------|
|------------------------12/14----------------------12-14h16p14p12-14b-|
|-----------------------------12/14-10/12------------------------------|
|-3/5-0-0-0-0-0--0-0---------------------0-0-0-0-0---------------------|


Verse (2:19):
Shrunken head I love to adore "B" movie gimme some gore
|----------------------------------------------------------------------|
|----------------------------------------------------------------------|
|-------------------12/14-----------------------------------12/14------|
|-14b~-------------------12/14-------------------------12/14-----12/14-|
|-----------------------------12/14-10/12------------------------------|
|-----0-0-0-0-0--0-0---------------------0-0-0-0-0--0-0----------------|

Gimme toro gimme some more "B" movie gimme some gore
|----------------------------------------------------------------------|
|----------------------------------------------------------------------|
|----------------------12/14-------------------------------------------|
|----------------------------12/14-------------------------------------|
|-12/14----------------------------12/14-10/12----------------10/12----|
|-------0-0-0-0-0--0-0-------------------------0-0-0-0-0--0-0----------|

|---------------------------------------------10-12--------------------|
|----------------b10~--888h10p8~--------------------10-12--------------|
|---------------------------------------------------------12-14--------|
|---------------------------------------------------------------12-14--|
|----------------------------------------------------------------------|
|----------------------------------------------------------------------|
| |
|---------------------------------strum-a-few-more-times---------------|
|-----------------------------------------^-^-^------------------------|
|-----------------------------------------^-^-^-7-9--------------------|
|---7-7-7-5-5-5-5-5-5-5-5-5-5-5-5-5-7-7-7-5-5-5------7-9---------------|
|---7-7-7-5-5-5-5-5-5-5-5-5-5-5-5-5-7-7-7-5-5-5------------5-7---------|
|---5-5-5-3-3-3-3-3-3-3-3-3-3-3-3-3-5-5-5-3-3-3------------------3-0---|

===============
Peace And Quiet
===============

UGH!
|----------------------------------------------------------------------|
|----------------------------------------------------------------------|
|----------------------------------------------------------------------|
|----------------------------------------------------------------------|
|----------------------------------10-12-------------------------------|
|--0-----0-0-0-0-0--0-0-0-0-0--0-0-------0-0-0-0-0--0-0-0-0-0--0-0-----|

|----------------------------------------------------------------------|
|----------------------------------------------------------------------|
|----------------------------------------------------------------------|
|----------------------------------------------------------------------|
|--10-12-----------------------------12-10-----------------------------|
|--------0-0-0-0-0--0-0-0-0-12-10-12-------0-0-0-0-0--0-0-0-0-0--------|


Verse (2:52):
Gimme toro gimme some more Gimme toro gimme some more
|----------10b------------------------------10b------------------------|
|------8--------------------------------8------------------------------|
|--7-9---9--------------------------7-9---9----------------------------|
|----------------------------------------------------------------------|
|----------------------------------------------------------------------|
|--------------0-0-0-0-0--0-0-0-0-0-------------0-0-0-0-0--0-0-0-0-0---|

Gimme toro gimme some more Gimme toro gimme some more
|----------10b------------------------------10b------------------------|
|------8--------------------------------8------------------------------|
|--7-9---9--------------------------7-9---9----------------------------|
|----------------------------------------------------------------------|
|----------------------------------------------------------------------|
|--------------0-0-0-0-0--0-0-0-0-0-------------0-0-0-0-0--0-0-0-0-0---|

YOW!
|---------------------------10b---------------10-12--------------------|
|---------------------------------------------------10-12--------------|
|--------------------0------------------------------------12-14--------|
|----------------0-2---2-0--------------------------------------12-14--|
|----------------------------------------------------------------------|
|----------------------------------------------------------------------|
| |
|----------------------------------------------------------------------|
|----------------------------------------------------------------------|
|-----------------------------------------------7-9--------------------|
|---7-7-7-5-5-5-5-5-5-5-5-5-5-5-5-5-7-7-7-5-5-5------7-9---------------|
|---7-7-7-5-5-5-5-5-5-5-5-5-5-5-5-5-7-7-7-5-5-5------------5-7---------|
|---5-5-5-3-3-3-3-3-3-3-3-3-3-3-3-3-5-5-5-3-3-3------------------3-0---|

This tab is perfect!
-Keith