Stop Censorship
 
 

 
 1-9 a b c d e f g h i j k l m n o p q r s t u v w x y z
   Queens Of The Stone Age - Millionaire Tab    

ueens of the Stone Age
Millionare
Songs for the Deaf

tune all strings down 2 steps

Main riff:
|----------------------| kick in that fuzzed out kyuss tone
|----------------------|
|----------------------|
|-----------------5-7--|
|----------------------|
|-000000000000000------|

chorus:
|-------------------|
|-------------------|
|-------------------|
|-7-7-7-55555555555-|
|-7-7-7-55555555555-|
|-5-5-5-33333333333-|

1st chorus fills:
|--------------|--------------------|
|--------------|--------------------|
|--------------|-------------14-12~-|
|---------5----|-12-14-12-14--------|
|-5-7-5-7---7~-|--------------------|
|--------------|--------------------|

2nd verse fill:
|-----------|
|-----------|
|-----------|
|-------7-5-|
|-7-5-7-----|
|-----------|

2nd chorus fills:
|-----------------|-------------------------------|
|-----------------|----------------12-15-12-15-12-|
|-----------------|----12----12-14----------------|
|-----5-7b8r7p5---|-14----14----------------------|
|-5-7-----------7-|-------------------------------|
|-----------------|-------------------------------|

Bridge:
|---------------------------| guitar 1
|---------------------------| play X 8
|---------------------------|
|-----------5-7-------------|
|---------------5-7---------|
|-000000000---------5-7-3-5-|

lead: come in on third time
|-----------------------------------|--------------------|
|-----------------------------------|--------------------|
|-----------------------------------|--------------------|
|-----------12-14-------------------|-14-14p12----12-16b-|
|-----------------12-14-------------|----------14--------|
|-000000000-------------12-14-10-12-|--------------------|

the harmony part: this may be a lil` off but sounds right to me
|-------------------------|
|-------------------------|
|--------11-13------------|
|--------------11-13-9-11-|
|-12-14-------------------|
|-------------------------|

then:
|-------------------------|
|-15-17-------------------|
|-------14-16-------------|
|-------------14-16-------|
|-------------------12-14-|
|-------------------------|

STOP

this is the badass call and repeat lick for the last verse
|------------------|
|-------------15b~-|
|----------12------|
|-12-14-12---------|
|------------------|
|------------------|

and the first fill for the last chorus:
|------------------|
|--------------15b-|
|------------------|
|-14-12-14-12------|
|------------------|
|------------------|


- tabbed by sean stinson
ftsismetal@hotmail.com