Stop Censorship
 
 

 
 1-9 a b c d e f g h i j k l m n o p q r s t u v w x y z
   Queens Of The Stone Age - Monster In The Parasol Tab    

Band: Queens Of The Stone Age
Song: Monsters in the parasol
---------------------------------------------------------------------
Transcribed by Juan Torres jdtporgy@hotmail.com

Rift 1
---------------------------------------------------------------------
---------------------------------------------------------------------
--------------------------------6--------------------------------7----
---8-8-8-8-8-8-8-8-8-8-8-8-8-8--6---8-8-8-8-8-8-8-8-8-8-8-8-8-8--7---- x2
---8-8-8-8-8-8-8-8-8-8-8-8-8-8--4---8-8-8-8-8-8-8-8-8-8-8-8-8-8--5----
---6-6-6-6-6-6-6-6-6-6-6-6-6-6------6-6-6-6-6-6-6-6-6-6-6-6-6-6-------


---------------------------------------------------------------------
---------------------------------------------------------------------
--------------------------------------------------------------6------
---8-8-8-8-8-8-8-8-8-8-8-8-8-8-8-8-8-8-8-8-8-8-8-8-8-8-8-8----6------ x2
---8-8-8-8-8-8-8-8-8-8-8-8-8-8-8-8-8-8-8-8-8-8-8-8-8-8-8-8----4------
---6-6-6-6-6-6-6-6-6-6-6-6-6-6-6-6-6-6-6-6-6-6-6-6-6-6-6-6-----------

rift 2
---------------------------------------------------------------
---------------------------------------------------------------
---------------------------------------------------------------
---8-8-8-8-8-8-8-8-8-8-8-8-8-8-8-6-6-6-6-6-6-6-6-6-6-6-6-6-----
--8-8-8-8-8-8-8-8-8-8-8-8-8-8-8-6-6-6-6-6-6-6-6-6-6-6-6-6-----
---6-6-6-6-6-6-6-6-6-6-6-6-6-6-6-4-4-4-4-4-4-4-4-4-4-4-4-4-----


---------------------------------/---
---------------------------------/---
---------------------------------/---
---8-8-8-8-8-8-8-8-8-8-8-8-8-8---/---
---8-8-8-8-8-8-8-8-8-8-8-8-8-8---/---
---6-6-6-6-6-6-6-6-6-6-6-6-6-6---/---

Rift 3

-----------------------
-----------------------
---8-7-6---6-7-8------- x8
---------7-------------
-----------------------

Chorus
----------------------------------------------------
----------------------------------------------------
---9-9-9-9-9-9-9-9-9--11-11-11-11-11-11-11-11-11----
---9-9-9-9-9-9-9-9-9--11-11-11-11-11-11-11-11-11----
---7-7-7-7-7-7-7-7-7---9--9--9--9--9--9--9--9--9----


---------------------------------------------------------------
---------------------------------------------------------------
----11-11-11-11-11-11-11-11-11--12-12-12-12-12-12-12-12-12-----
----11-11-11-11-11-11-11-11-11--12-12-12-12-12-12-12-12-12-----
-----9--9--9--9--9--9--9--9--9--10-10-10-10-10-10-10-10-10-----
-----9--9--9--9--9--9--9--9--9--10-10-10-10-10-10-10-10-10-----

2 guitar in chorrus
--------------------------9------------------9----------
----------------------------10-----------------10-------
-11--13--11-13------12---------9--12--12--------9--12---
--------------------------------------------------------
--------------------------------------------------------
--------------------------------------------------------

Again all rifts and chorrus
and the last part is:

----------------------------
----------------------------
----------------------------
---8-7-6---6-7-8--7--8------
---------8------------------
----------------------------

you have monsters in your parasol!!!!!