Stop Censorship
 
 

 
 1-9 a b c d e f g h i j k l m n o p q r s t u v w x y z
   Queens Of The Stone Age - Monster In The Parasol Tab    

Tabbed By: Tim Barr
Standard Tuning
Intro Riff:
A5 C
E|--------------------------
B|-----------------------5--
G|-----------------9-----5--
D|-77777777777777--10-or-5--
A|-77777777777777--10----3--
E|-55555555555555--8-----3--
pm..............
x4

Verse 1:
A5 C
The flowers are closing in again...oh well x2
A5 G
I`ve seen some things i thought i never saw
A5 C
Covered in hair
A5 C
A5 C
Paul`s dad is warped and bubbling...oh well x2
A5 G
My mind is up here on another wave
A5
Covered in hair

Bridge Riff:
E|-----------------------------
B|-----------------------------
G|-----------------------------
D|-7-6-5-5-6-7-6-7-6-5-5-6-7-6-
A|------7-------------7--------
E|-----------------------------
She won`t grow
Chorus:
F# D C
E|------------------------------------------------------------7-----
B|------------------------------------------------------------------
G|-11-11-11-11-11-11-11----------------------------------------10h11
D|----------------------12-12-12-12-12-12-12-12-10-10-10-10-10------
A|------------------------------------------------------------------
E|------------------------------------------------------------------
You`ve got a mon-ster in your parasol

E|---------------7------
B|----------------------
G|----------------10h11-
D|-10-10-10-10-10-------
A|----------------------
E|----------------------

Second Verse lyrics:
Paul`s sister is an alien, oh well x2
I`ve seen some things i thought i never saw
Covered in hair