Stop Censorship
 
 

 
 1-9 a b c d e f g h i j k l m n o p q r s t u v w x y z
   Queens Of The Stone Age - Monster In The Parasole Tab    

Tuning is just the normal E, A, D, G, B, e


Riff 1 : part a

------------------------------
------------------------------
------------------------------
-----------------14-----------
-----------------14-----------
--55555555555550-12-----------

Riff 1 : part b
-----------------------------------
-----------------------------------
-----------------------------------
--------------------------------14-
--------------------------------14-
-555555555555555555555555555550-12-


Riff 1 : part c
-----------------------------------------------
-----------------------------------------------
-----------------------------------------------
-----------------------------------------------
-----------------------------------------------
-555555555555555533333333333333335555555555555-

Riff 2
----------------------------------
----------------------------------
----------------------------------
----------------------------------
-12-11-10----10-11-12-11----------
----------12----------------------

Riff 3
---------------------------------------------------------------
---------------------------------------------------------------
---------------------------------------------------------------
---------------------------------------------------------------
--77777777-44444444-99999999-10101010101010101010101010101010--
--66666666-33333333-88888888-9-9-9-9-9-9-9-9-9-9-9-9-9-9-9-9---
---------------------------------------------------------------

Riff 4

-------------------------------------------8--------------8-----
-7-7-7-7-7-7-7-7----------------------------7-8------------7-8--
-----------------7-7-7-7-7-7-7-7-5-5-5-5-5------5-5-5-5-5-------
----------------------------------------------------------------
----------------------------------------------------------------
----------------------------------------------------------------



Riff 1 : part a (x4)
Riff 1 : part b (x2)
Riff 1 : part c (x1)
Riff 1 : part a (x1)
Riff 1 : part b (X2)
Riff 1 : part c (x1)
Riff 2 (x6)
Riff 3
Riff 4 (x4) ...

you`ll get the idea, my be a few little differences, I think the 12- bit at end of riff 1 may change to 11- occasionally.


contact me a ethnic_toxin@hotmail.com