Stop Censorship
 
 

 
 1-9 a b c d e f g h i j k l m n o p q r s t u v w x y z
   Queens Of The Stone Age - Monsters In The Parasol Tab    

Queens Of The Stone Age - Monsters In The Parasol




INTRO
e|-----------------------|-----------------------|
B|-----------------------|-----------------------|
G|*---------------------*|*---------------------*|
D|*-----------------14--*|*-----------------14--*|
A|------------------14---|------------------14---|
E|---55555555555550-12---|---55555555555550-12---|


VERSE
e|---------------------------------------|
B|---------------------------------------|
G|*-------------------------------------*|
D|*---------------------------------14--*|
A|----------------------------------14---|
E|---555555555555555555555555555550-12---|

e|-------------------------------------------------|-----------------------|
B|-------------------------------------------------|-----------------------|
G|-------------------------------------------------|*---------------------*|
D|-------------------------------------------------|*-----------------14--*|
A|-------------------------------------------------|------------------14---|
E|--555555555555555533333333333333335555555555555--|---55555555555550-12---|


VERSE 2
e|---------------------------------------|
B|---------------------------------------|
G|*-------------------------------------*|
D|*---------------------------------14--*|
A|----------------------------------14---|
E|---555555555555555555555555555550-12---|

e|-------------------------------------------------|
B|-------------------------------------------------|
G|-------------------------------------------------|
D|-------------------------------------------------|
A|-------------------------------------------------|
E|--555555555555555533333333333333335555555555555--|


BRIDGE
e|-----------------------------|-----------------------------|
B|-----------------------------|-----------------------------|
G|*---------------------------*|*---------------------------*|
D|*---------------------------*|*---------------------------*|
A|---12-11-10----10-11-12-11---|---12-11-10----10-11-12-11---|
E|------------12---------------|------------12---------------|

e|-----------------------------|-----------------------------|
B|-----------------------------|-----------------------------|
G|*---------------------------*|*---------------------------*|
D|*---------------------------*|*---------------------------*|
A|---12-11-10----10-11-12-11---|---12-11-10----10-11-12-11---|
E|------------12---------------|------------12---------------|

stacc.* * * * * * * * * * * * * * * *
e|---------------------------------------------------------------|
B|---------------------------------------------------------------|
G|---------------------------------------------------------------|
D|--77777777-44444444-99999999-10101010101010101010101010101010--|
A|--66666666-33333333-88888888--9-9-9-9-9-9-9-9-9-9-9-9-9-9-9-9--|
E|---------------------------------------------------------------|


CHORUS
e|------------------------------------|------------8--------------8------|
B|---7-7-7-7-7-7-7-7------------------|-------------7-8------------7-8---|
G|*------------------7-7-7-7-7-7-7-7--|--5-5-5-5-5------5-5-5-5-5-------*|
D|*-----------------------------------|---------------------------------*|
A|------------------------------------|----------------------------------|
E|------------------------------------|----------------------------------|

e|------------------------------------|------------8--------------8------|
B|---7-7-7-7-7-7-7-7------------------|-------------7-8------------7-8---|
G|*------------------7-7-7-7-7-7-7-7--|--5-5-5-5-5------5-5-5-5-5-------*|
D|*-----------------------------------|---------------------------------*|
A|------------------------------------|----------------------------------|
E|------------------------------------|----------------------------------|


BRIDGE to Verse
e|-----------------------|
B|-----------------------|
G|*---------------------*|
D|*-----------------14--*|
A|------------------14---|
E|---55555555555550-12---|


VERSE 2 again
BRIDGE again
CHORUS again

e|-------------8--------------8------|------------8--------------8-----|
B|--------------7-8------------7-8---|-------------7-8------------7-8--|
G|*--5-5-5-5-5------5-5-5-5-5-------*|--5-5-5-5-5------5-5-5-5-5-------|
D|*---------------------------------*|---------------------------------|
A|-----------------------------------|---------------------------------|
E|-----------------------------------|---------------------------------|


ENDING
e|---------------------------|
B|---------------------------|
G|---------------------------|
D|---------------------------|
A|--12-11-10----10-11-12-11--|
E|-----------12--------------|