Stop Censorship
 
 

 
 1-9 a b c d e f g h i j k l m n o p q r s t u v w x y z
   Queens Of The Stone Age - No One Knows Tab    

#----------------------------------PLEASE NOTE--------------------------------#
#This file is the author`s own work and represents their interpretation of the#
#song. You may only use this file for private study, scholarship, or research.#
#-----------------------------------------------------------------------------#
#-- File created with Instab - http:/www.pconline.com/~smcarey/instab.html --#
#-----------------------------------------------------------------------------#

Author/Artist: Queens of the stone age
Title: No One Knows
Album: Songs for the deaf
Transcribed by: Gei
Email: l_c_f_r@hotmail.com

Tuning: Standard (E A D G B e)

In this song play 2 guitar, but where there isn`t 2nd guitar`s part, it plays same of 1st


Intro:

Guitar 1:
|-------------------------|
|-------------------------|
|-------------------------|
|-10-----10-----10-----10-|
|-10-----10-----10-----10-|
|-8------8------8------8--|

Guitar 2:
|--------------------------|
|-13-----13-----13-----13b-|
|--------------------------|
|--------------------------|
|--------------------------|
|--------------------------|

Intro 2:
|-----------------------------------------------------|
|-----------------------------------------------------|
|-10--10-8-----10--10-8------10--10-8-----10--10-8----|
|----------10-----------10------------10-----------10-|
|-----------------------------------------------------|
|-----------------------------------------------------|

|------------------------------------------------|
|------------------------------------------------|
|-10--10-8-----10--10/12p10---10--10-8-----10--7-|
|----------10--------------------------10--------|
|------------------------------------------------|
|------------------------------------------------|
Nh .

Verse:
|----------------------------------------------------------------------|
|----------------------------------------------------------------------|
|----------------------------------------------------------------------|
|-x--10--x--10--x--10--x--10-10-10--10-x--10--x--10--x--10-10-10--10-x-|
|-x--10--x--10--x--10--x--10-10-10--10-x--10--x--10--x--10-10-10--10-x-|
|-x--8---x--8---x--8---x--8--8--8---8--x--8---x--8---x--8--8--8---8--x-|

|----------------------------------------------------------------|
|----------------------------------------------------------------|
|----------------------------------------------------------------|
|-10--x--10--x--10-10-10--10-x--10--x--10-10-10-10--10--x--10--x-|
|-10--x--10--x--10-10-10--10-x--10--x--10-10-10-10--10--x--10--x-|
|-8---x--8---x--8--8--8---8--x--8---x--8--8--8--8---8---x--8---x-|

|---------------------------------------------------------------|
|---------------------------------------------------------------|
|---------------------------------------------------------------|
|-5-x-5-x-5-x-5-x-5-x-5-x-5-5-5-x-9-x-9-x-9-x-9-x-9-x-9-x-9-9-9-|
|-5-x-5-x-5-x-5-x-5-x-5-x-5-5-5-x-9-x-9-x-9-x-9-x-9-x-9-x-9-9-9-|
|-3-x-3-x-3-x-3-x-3-x-3-x-3-3-3-x-7-x-7-x-7-x-7-x-7-x-7-x-7-7-7-|

|-----------------------------------------------|
|-----------------------------------------------| (Guitar 2, instead of 7, plays 5)
|-10--10-8-----10--10-8------10--10-8-----10--7-|
|----------10-----------10------------10--------|
|-----------------------------------------------|
|-----------------------------------------------|

|----------------------------------------------------------------------|
|----------------------------------------------------------------------|
|----------------------------------------------------------------------|
|-x--10--x--10--x--10--x--10-10-10--10-x--10--x--10--x--10-10-10--10-x-|
|-x--10--x--10--x--10--x--10-10-10--10-x--10--x--10--x--10-10-10--10-x-|
|-x--8---x--8---x--8---x--8--8--8---8--x--8---x--8---x--8--8--8---8--x-|

|----------------------------------------------------------------|
|----------------------------------------------------------------|
|----------------------------------------------------------------|
|-10--x--10--x--10-10-10--10-x--10--x--10-10-10-10--10--x--10--x-|
|-10--x--10--x--10-10-10--10-x--10--x--10-10-10-10--10--x--10--x-|
|-8---x--8---x--8--8--8---8--x--8---x--8--8--8--8---8---x--8---x-|

|---------------------------------------------------------------|
|---------------------------------------------------------------|
|---------------------------------------------------------------|
|-5-x-5-x-5-x-5-x-5-x-5-x-5-5-5-x-9-x-9-x-9-x-9-x-9-x-9-x-9-9-9-|
|-5-x-5-x-5-x-5-x-5-x-5-x-5-5-5-x-9-x-9-x-9-x-9-x-9-x-9-x-9-9-9-|
|-3-x-3-x-3-x-3-x-3-x-3-x-3-3-3-x-7-x-7-x-7-x-7-x-7-x-7-x-7-7-7-|

|-----------------------------------------------|
|-----------------------------------------------|
|-10--10-8-----10--10-8------10--10-8-----10--7-|
|----------10-----------10------------10--------|
|-----------------------------------------------|
|-----------------------------------------------|

|---------------------------------------------------------------|
|---------------------------------------------------------------|
|---------------------------------------------------------------|
|-5-x-5-x-5-x-5-x-5-x-5-x-5-5-5-x-9-x-9-x-9-x-9-x-9-x-9-x-9-9-9-|
|-5-x-5-x-5-x-5-x-5-x-5-x-5-5-5-x-9-x-9-x-9-x-9-x-9-x-9-x-9-9-9-|
|-3-x-3-x-3-x-3-x-3-x-3-x-3-3-3-x-7-x-7-x-7-x-7-x-7-x-7-x-7-7-7-|

|------------------------------------------------------------|
|------------------------------------------------------------|
|-10--10-8-----10--10-8-10/12v------10--10-8-----10--10-8----|
|----------10------------------10------------10-----------10-|
|------------------------------------------------------------|
|------------------------------------------------------------|

Chorus:
|--------------------------------------------------------|
|--------------------------------------------------------|
|--------------------------------------------------------|
|------------------------5-x-5-x-5-x-5-x-5-x-5-x-5-x-5-x-|
|------------------------5-x-5-x-5-x-5-x-5-x-5-x-5-x-5-x-|
|-8-10-11-10-13-11-15-13-3-x-3-x-3-x-3-x-3-x-3-x-3-x-3-x-|

|--------------------------------------------------------|
|--------------------------------------------------------|
|--------------------------------------------------------|
|------------------------5-x-5-x-5-x-5-x-5-x-5-x-5-x-5-x-|
|------------------------5-x-5-x-5-x-5-x-5-x-5-x-5-x-5-x-|
|-8-10-11-10-13-11-15-13-3-x-3-x-3-x-3-x-3-x-3-x-3-x-3-x-|

|-----------------------------------------------------|
|-----------------------------------------------------|
|-----------------------------------------------------|
|---------------------5-x-5-x-5-x-5-x-5-x-5-x-5-x-5-x-|
|---------------------5-x-5-x-5-x-5-x-5-x-5-x-5-x-5-x-|
|-11-10-8-7-11-10-8-7-3-x-3-x-3-x-3-x-3-x-3-x-3-x-3-x-|

|--------------------------------------------------------|
|--------------------------------------------------------|
|--------------------------------------------------------|
|------------------------5-x-5-x-5-x-5-x-5-x-5-x-5-x-5-x-|
|------------------------5-x-5-x-5-x-5-x-5-x-5-x-5-x-5-x-|
|-8-10-11-10-13-11-15-13-3-x-3-x-3-x-3-x-3-x-3-x-3-x-3-x-|

|-----------------------------------------------|
|-----------------------------------------------|
|-10--10-8-----10--10-8------10--10-8-----10--7-|
|----------10-----------10------------10--------|
|-----------------------------------------------|
|-----------------------------------------------|

Verse 2: same 1

Chorus 2: same 1

Bridge:
|-------------------------------------|
|-------------------------------------|
|-5-5-5-5-5-5-5-5-5-5-5-5-------------|
|-5-5-5-5-5-5-5-5-5-5-5-5-------------|
|-3-3-3-3-3-3-3-3-3-3-3-3-------------|
|-------------------------3-4-7-3-1-3-|

|-------------------------------------------------------------------------|
|-------------------------------------------------------------------------|
|-5-5-5-5-5-5-5-5-5-5-5-5-------------------------------------------------|
|-5-5-5-5-5-5-5-5-5-5-5-5-------------------------------------------------|
|-3-3-3-3-3-3-3-3-3-3-3-3-------------------------------------------------|
|-------------------------3-4-7-3-1-3-3-4-7-4-1-3-3-4-7-3-1-3-3-4-7-3-1-3-|


Interlude: bass solo 1st time guitar tacet, then:

|-----------------------------------------------|
|-----------------------------15----------------|
|-5-/8-8/10-10/12---/17-17-15----15-17p15-10h12-|
|-----------------------------------------------|
|-----------------------------------------------|
|-----------------------------------------------|

|----------------------------------------------|
|----------------------------------------------|
|-12p10-8h10---10p8-7h8---8p7-5h7---8p7-5h7/12-|
|----------------------------------------------|
|----------------------------------------------|
|----------------------------------------------|

|--------------------------------------------|
|--------------------------------------------|
|-------12-15b---------12-15b---------12-15b-|
|-10-13----------10-13----------10-13--------|
|--------------------------------------------|
|--------------------------------------------|

|-----------------------------------------------------------------------------|
|-----------------------------------------------------------------------------|
|-15p11-------------15p11-------------15p11-------------15p11-------------/15-|
|-------12h15p12h14-------12h15p12h14-------12h15p12h14-------12h15p12h14-----|
|-----------------------------------------------------------------------------|
|-----------------------------------------------------------------------------|

Verse 3:

|----------------------------------------------------------------|
|----------------------------------------------------------------|
|----------------------------------------------------------------|
|-10--x--10--x--10-10-10--10-x--10--x--10-10-10-10--10--x--10--x-|
|-10--x--10--x--10-10-10--10-x--10--x--10-10-10-10--10--x--10--x-|
|-8---x--8---x--8--8--8---8--x--8---x--8--8--8--8---8---x--8---x-|

|---------------------------------------------------------------|
|---------------------------------------------------------------|
|---------------------------------------------------------------|
|-5-x-5-x-5-x-5-x-5-x-5-x-5-5-5-x-9-x-9-x-9-x-9-x-9-x-9-x-9-9-9-|
|-5-x-5-x-5-x-5-x-5-x-5-x-5-5-5-x-9-x-9-x-9-x-9-x-9-x-9-x-9-9-9-|
|-3-x-3-x-3-x-3-x-3-x-3-x-3-3-3-x-7-x-7-x-7-x-7-x-7-x-7-x-7-7-7-|

|-----------------------------------------------|
|-----------------------------------------------|
|-10--10-8-----10--7----10--10-8-----10--10-8---|
|----------10-------------------10-----------10-|
|-----------------------------------------------|
|-----------------------------------------------|
Nh .

|---------------------------------------------------------------|
|---------------------------------------------------------------|
|---------------------------------------------------------------|
|-5-x-5-x-5-x-5-x-5-x-5-x-5-5-5-x-9-x-9-x-9-x-9-x-9-x-9-x-9-9-9-|
|-5-x-5-x-5-x-5-x-5-x-5-x-5-5-5-x-9-x-9-x-9-x-9-x-9-x-9-x-9-9-9-|
|-3-x-3-x-3-x-3-x-3-x-3-x-3-3-3-x-7-x-7-x-7-x-7-x-7-x-7-x-7-7-7-|

Outro:
|--------------------------------|
|--------------------------------|
|--------------------------------|
|-10-----10-----10-----10-----10-|
|-10-----10-----10-----10-----10-|
|-8------8------8------8------8--|

Tablature Keys:

h - hammer on
p - pull off
b - bend
r - relese bend
~ - sustain
/ - slide up
- slide down
v - vibrato
* - trill
x - mute string
pm - palm mute
nh - natural harmonic
ph - pitch harmonic
x - pick scrape (direction same as slide)