Stop Censorship
 
 

 
 1-9 a b c d e f g h i j k l m n o p q r s t u v w x y z
   Queens Of The Stone Age - No One Knows (Ordered Tab-Easier Playing Tab    

Intro
|--------------------------|
|--------------------------|
|-8---x---8---x---8---x---8|
|10---x--10---x--10---x--10|
|--------------------------|
|--------------------------|

Verse 1 (Played by Guitar 1)

*Verse Beginning*
|-------------------------------------------
|-------------------------------------------
|10--10-8-8--10--10-----10--10-8-8--10--10--
|------------------10---------------------10
|-------------------------------------------
|-------------------------------------------


*Verse Middle*
-------------------------------------------
-------------------------------------------
-10-10-8-8--10--10----10--10-8-8--10--10---
-------------------10--------------------10
-------------------------------------------
-------------------------------------------


*Verse End*
----------------------------------------11|
------------------------------------------|
10--10-8-8--10-10-12-10---10--10-8-8--10--|
------------------------------------------|
------------------------------------------|
------------------------------------------|

Verse 2 (Played By Guitar 2)


|------------------------------------------------
|------------------------------------------------
|--8--8--8--8--8--8--8--8--8--8--8--8--8--8--8--8
|-10-10-10-10-10-10-10-10-10-10-10-10-10-10-10-10
|------------------------------------------------
|------------------------------------------------

----------------|
----------------|
-9-9-9-9-8-8-8-8|
-7-7-7-7-8-8-8-8|
----------------|
----------------|








Chorus (Guitar 1)

|---------------------------------------------|
|---------------------------------------------|
|---------------------------------------------|
|10-12-13-12-15-13-17-15--5-555-5-555-5-555-55|
|-------------------------5-555-5-555-5-555-55|
|-------------------------3-333-3-333-3-333-33| x4 x5



Bridge

|-------- -----------|
|-------- -----------|
|-------- -----------|
|10101010 5-6-8-6-5-8|
|10101010 six times, then: 5-6-8-6-5-8|
|-8-8-8-8 3-4-6-4-3-6|



Outro

|----------------------------------|
|----------------------------------|
|-8---x---8---x---8---x---8---x---8|
|10---x--10---x--10---x--10---x--10|
|----------------------------------|
|----------------------------------|




Playing Order

Intro
Verse 1 Middle
Verse 1 End
___
Verse 1 Beginning |
Verse 1 Middle, Verse 2 > x2
Verse 1 End ___|
Verse 1 Middle, Verse 2
Verse 1 End
Chorus x5
Verse 1 Middle, Verse 2
Verse 1 End
___
Verse 1 Beginning |
Verse 1 Middle, Verse 2 > x2
Verse 1 End ___|
Chorus x4
Bridge
Bass Solo (Not In Guitar tab), Verse 2, Verse 1 Middle
___
Verse 1 Beginning |
Verse 1 Middle, Verse 2 > x2
Verse 1 End ___|
Outro

N.B. This tab is designed for easy playing from the start; certain pieces however are generally hard, as the Queens are excellent guitarists. The bass solo should be found in the Bass section of Music X Tabs.