Stop Censorship
 
 

 
 1-9 a b c d e f g h i j k l m n o p q r s t u v w x y z
   Queens Of The Stone Age - No One Knows - Solo Tab    

#----------------------------------PLEASE NOTE--------------------------------#
#This file is the author`s own work and represents their interpretation of the#
#song. You may only use this file for private study, scholarship, or research.#
#-----------------------------------------------------------------------------#


Author/Artist: Queens Of The Stone Age
Title: No One Knows - solo
Album: Songs For The Deaf
Transcribed by: southpaw25@ziplip.com

/ - slide up
(fret number) - sound the note by sliding into it, don`t pick
~ - vibrato
- slide down
h - hammer-on
p - pull-off
(f) - full bend, after holding the note for a short duration
. - sound the note then immediately dampen

~
1-0------0-0------0-0-------0--0--------0--0---
2-5/(7)--7-7/(8)--8-8/(10)--10-10/(12)--12-12--
3----------------------------------------------
4----------------------------------------------
5----------------------------------------------
6----------------------------------------------

~
1-0--0---0--0---0--0---0--0---0--0------------
2-17-17--15-15--19-19--15-15--17-17---8/(12)--
3---------------------------------------------
4---------------------------------------------
5---------------------------------------------
6---------------------------------------------

~ ~ ~ ~
1---------------------------------------------------------------------
2-10h12p10(8)-10---8h10p8(7)-8---7h8p7(5)-7---7h8p7(5)-7---/(12)--
3---------------------------------------------------------------------
4---------------------------------------------------------------------
5---------------------------------------------------------------------
6---------------------------------------------------------------------

~
1-----------------------------------------------------
2----8--12--(f)------8--12--(f)------8--12--(f)---12--
3-9---------------9---------------9-------------------
4-----------------------------------------------------
5-----------------------------------------------------
6-----------------------------------------------------

1-14(12)-----------------14(12)-----------------14(12)------------------
2---------12/(15)-----------------12/(15)-----------------12/(15)----------
3-----------------14(12)-----------------14(12)-----------------14(12)--
4--------------------------------------------------------------------------
5--------------------------------------------------------------------------
6--------------------------------------------------------------------------

.
1-14(12)----------------------
2---------12/(15)---------15f--
3-----------------14(12)------
4------------------------------
5------------------------------
6------------------------------