Stop Censorship
 
 

 
 1-9 a b c d e f g h i j k l m n o p q r s t u v w x y z
   Queens Of The Stone Age - No One Noes Tab    

Mxtabs [http:/www.mxtabs.net]
Tabbed glen reed
|----------|----------
|-10-10-7-7
|-7--7--7-9
|-9--9--9-9
|-7--7--7-7

|----------
|-10-10-7-7
|-7--7---7-9
|-9--9--9-9
|-7--7--7-7-12/
|-----------12/

|----------
|-10-10-7-7
|-7--7--7-9
|-9--9--9-9
|-7--7--7-7
|----------

|----------
|-10-10^
|-7---7^
|-9---9^
|-7---7^-12/
|--------12/

|----------
|-10-10-7-7
|-7--7--7-9
|-9--9--9-9
|-7--7--7-7
|----------

|-------
|-10-10h
|-7-----
|-9-----
|-7-----
|-------

|-----------------
|x-8-x-8-x-8-x-8-8
|x-9-x-9-x-9-x-9-9
|x-9-x-9-x-9-x-9-9
|x-7-x-7-x-7-x-7-7
|-----------------

|-----------------------------
|x-8-x-8-x-8-x-8-8------------
|x-9-x-9-x-9-x-9-9-8-x-8-x-8-x-8-x-8-x-8-x-8-8------
|x-9-x-9-x-9-x-9-9-9-x-9-x-9-x-9-x-9-x-9-x-9-9-x-8-x-8-x-8-x-6-x-6-x-6
|x-7-x-7-x-7-x-7-7-9-x-9-x-9-x-9-x-9-x-9-x-9-9-x-8-x-8-x-8-x-6-x-6-x-6
|------------------7-x-7-x-7-x-7-x-7-x-7-x-7-7-x-6-x-6-x-6-x-6-x-6-x-6