Stop Censorship
 
 

 
 1-9 a b c d e f g h i j k l m n o p q r s t u v w x y z
   Queens Of The Stone Age - Quick And To The Pointless Tab    

Queens of the Stone Age - Quick and to the pointless
(Rated R)
this song can be played on almost every tuning, I transcribed only D A D G B e because this
is the one I use. The actual QOTSA tuning is C F Bb Eb G C (two full steps down from
standard). So if you use any other tuning this tab should help you aswell, shouldn`t be to
difficult to figure out the frets for your tuning. I also have the other tunings on my PC so
if your too lazy just mail me.
For any corrections (which is actually not possible because this is 100% correct *g*) or
questions or comments or proposals mail me at sharifbitar@hotmail.com (English and German)
PLEASE RATE!


Riff a1 (verses)
e---------------------
B---------------------
G---------------------
D-(14)-2--3-3-3-3-3-3-
A-(14)-2--3-3-3-3-3-3-
D-(14)-2--3-3-3-3-3-3-
^play these notes only at the very beginning of the song (seems to me like they`re
random anyway so don`t care about them too much)

Riff a2
e----------------
B----------------
G----------------
D-2--3-3-3-3-3-3-
A-2--3-3-3-3-3-3-
D-2--3-3-3-3-3-3-
^PM from here on

Riff a3
e--------------
B--------------
G--------------
D-2--3-3-3-3-3-
A-2--3-3-3-3-3-
D-2--3-3-3-3-3-


Riff a4
e--------------
B--------------
G--------------
D-2--3-3-3-3-3-
A-2--3-3-3-3-3-
D-2--3-3-3-3-3-
^PM from here on

Riff a5
e--------
B--------
G--------
D-2--3-3-
A-2--3-3-
D-2--3-3-

Riff b (chorus)
e-------------------------------------------------------------
B-------------------------------------------------------------
G-------------------------------------------------------------
D-5--5-5-5-5-5-5-5-5-5-5-5-5-5---4--4-4-4-4-4-4-4-4-4-4-4-4-4-
A-5--5-5-5-5-5-5-5-5-5-5-5-5-5---4--4-4-4-4-4-4-4-4-4-4-4-4-4-
D-5--5-5-5-5-5-5-5-5-5-5-5-5-5---4--4-4-4-4-4-4-4-4-4-4-4-4-4-

order:
Riff a1: 16x
Riff b : 1x
Riff a1: 4x
Riff a2: 7x
Riff a1: 1x
Riff b : 1x
Riff a1: 4x
Riff a3: 4x
Riff a4: 7x
Riff a3: 1x
Riff b : 1x
Riff a1: 4x
Riff b : 1x
Riff a3: 1x
Riff a5: 1x


Have fun