Stop Censorship
 
 

 
 1-9 a b c d e f g h i j k l m n o p q r s t u v w x y z
   Queens Of The Stone Age - Song For The Dead Tab    

Song for the dead-queens of the stone age
tabbed by damion
aim-dazedguitar420
tuning drop c low to high (CFBbEbGC)
Intro:
C|-----||
G|-----||
Eb|-----||
Bb|-----||
F|-----||
C|-15-||


Intro Riff:
C|-----------------------------------||
G|-----------------------------------||
Eb|-----------------------------------||
Bb|-----------------------------------||
F|-----------------------------------||
C|-0-<5>-0-0-<5>-0-0-0-<5>-0-0-<5>-0-||


Transition:
C|-----------------|
G|-----------------|
Eb|-----------------|
Bb|-2---2---2---2---|
F|-2---2---2---2---|
C|-0---0---0---0---|


Main Riff:
C|------------------------------------||
G|------------------------------------||
Eb|-----9--------10-------9------------||
Bb|-----9--------9--------9-----(fill)-||
F|-----7--------7--------7------------||
C|-0-0------0-0------0-0--------------||


Verse 1 Fills: (in order)
C|---------|----------|---------------|------------|
G|-/12-----|-br12-----|---------------|------------|
Eb|-----12v-|------12v-|-----7--9p7----|------------|
Bb|---------|----------|-7h9--------7--|------------|
F|---------|----------|---------------|------------|
C|---------|----------|---------------|-5-/7-/10b-|

C|---------|---------------|------15-|-13p10-----------------|
G|-/12-----|---------------|-12------|-------11--------------|
Eb|-----12v-|-----7--9p7----|-14b-----|----------13-----------|
Bb|---------|-7h9--------7--|---------|---------------12------|
F|---------|---------------|---------|------------------14---|
C|---------|---------------|---------|-----------------------|

C|---------------|---------------------|-------------|---------||
G|---9h11-9-11b--|-15-12-11-12-11------|-------------|---------||
Eb|-7-------------|----------------12v--|-------------|---------||
Bb|---------------|---------------------|-------------|---------||
F|---------------|---------------------|-------------|(w/slide)||
C|---------------|---------------------|-3-/5-/7-/12-|-12//---||

Chorus Riff:
C|---------------------------------------------------||
G|---------------------------------------------------||
Eb|-----9--------10------------------7-7-7-7-7-7-7-7-||
Bb|-----9--------9---5-5-5-5-5-5-5-5-7-7-7-7-7-7-7-7-||
F|-----7--------7---5-5-5-5-5-5-5-5-5-5-5-5-5-5-5-5-||
C|-0-0------0-0------3-3-3-3-3-3-3-3-----------------||

Main Riff:
C|------------------------------------||
G|------------------------------------||
Eb|-----9--------10-------9------------||
Bb|-----9--------9--------9-----(fill)-||
F|-----7--------7--------7------------||
C|-0-0------0-0------0-0--------------||

Verse 2 Fills: (in order)
C|-------------|
G|-------------|
Eb|-(weird------|
Bb|-distortion)-|
F|-------------|
C|-12/13-12/13-|

C|---------|-127-p0-9b--|-15p12----14------|------------------------||
G|-/12-----|-------------|-------13---------|-12v--11h12-11----------||
Eb|-----12v-|-------------|-------------14b--|---------------12-------||
Bb|---------|-------------|------------------|------------------14-12-||
F|---------|-------------|------------------|------------------------||
C|---------|-------------|------------------|------------------------||


Chorus Riff:
C|---------------------------------------------------||
G|---------------------------------------------------||
Eb|-----9--------10------------------7-7-7-7-7-7-7-7-||
Bb|-----9--------9---5-5-5-5-5-5-5-5-7-7-7-7-7-7-7-7-||
F|-----7--------7---5-5-5-5-5-5-5-5-5-5-5-5-5-5-5-5-||
C|-0-0------0-0------3-3-3-3-3-3-3-3-----------------||

Guitar Solo:

|-----------12--------------12------121212121212-----------------------|
|-----------15b(17)---r-----15b(17)-151515151515r--12h15-----------15--|
|-------------------------------------------------------14p12-12h14----|
|----------------------------------------------------------------------|
|----------------------------------------------------------------------|
|--0-------------------------------------------------------------------|

|----------------------------------------------------------------------|
|------15-----15-----15-----15-----15----------------------------x-----|
|-12h14--12h14--12h14--12h14--12h15--12h14-14-12-14-14b-12-14-12--x----|
|------------------------------------------------------------------x14-|
|----------------------------------------------------------------------|
|----------------------------------------------------------------------|

|-------x------------x--------x-----15b(17)15151515151515151515151515--|
|--------x-12-12~-----x--------x-12------------------------------------|
|---------x------------x-----------------------------------------------|
|--14~------------------14-14~-----------------------------------------|
|----------------------------------------------------------------------|
|----------------------------------------------------------------------|

|-12-15-15b----15--12-15-12-----12--------x----------------------------|
|---------------------------------12--15---x-12-14~--------12----------|
|-----------------------------------x-----------------12/14------------|
|------------------------------------x---------------------------------|
|----------------------------------------------------------------------|
|----------------------------------------------------------------------|

|----------------------------------------------------------------------|
|----------------------------------8-------10b-8--8-------10b-8--------|
|------------------------------7-9---9-7-9----------9-7-9--------------|
|----------------5b----------------5--------7b-5--5--------7b-5--------|
|--7-7-5/7-7-5/7----7-7-5/7-7--5-7---7-5-7----------7-5-7--------------|
|----------------------------------------------------------------------|

|---------------------------------------------------------12-------12--|
|--10b-10-7--7-8-7h8p7h8p7h8p7-7h8p7---7----------------12---12----12--|
|------------------------------------9---9-7-9-9-7/9-9---------14------|
|----------------------------------------------------------------------|
|----------------------------------------------------------------------|
|----------------------------------------------------------------------|

|----------------------------------------------------------------------|
|-12-12----------------------------------------------------------------|
|-------------------11h12----11h12----11h12-------------11h12p11-------|
|-------12-12/14-14-------14-------14-------12/14-14-14---------14-----|
|----------------------------------------------------------------------|
|----------------------------------------------------------------------|

|----------------------------------------------------------------------|
|----------------------------------------------------------------------|
|-11h12p11--11h12p11h13p12--12p0-14p0-16p0-17p0-19p0--19b--------------|
|---------14--------------14-------------------------------------------|
|----------------------------------------------------------------------|
|----------------------------------------------------------------------|

Main Riff:
C|------------------------------------||
G|------------------------------------||
Eb|-----9--------10-------9------------||
Bb|-----9--------9--------9-----(fill)-||
F|-----7--------7--------7------------||
C|-0-0------0-0------0-0--------------||

Verse 3 Fills: (in order)
C|-------|-------15----------|------|-------------------|
G|-------|----------14----15-|------|-------------------|
Eb|-------|-------------16----|------|-------------------|
Bb|-------|-12-14-------------|------|-------------------|
F|(slide)|-------------------|------|-(pause for drums)-|
C|-10--|-------------------|-10b--|-------------------|

C|---------|------------------|-------------------------|--------------------||
G|-14b16b--|------------------|-12h15p12h14p12h14-------|--------------------||
Eb|---------|------------------|-------------------12----|--------------------||
Bb|---------|------------------|----------------------14-|--------------------||
F|---------|-(pause for bass)-|-------------------------|--------------------||
C|---------|------------------|-------------------------|-/12-12-12-12-12-12-||


Chorus Riff:
C|---------------------------------------------------||
G|---------------------------------------------------||
Eb|-----9--------10------------------7-7-7-7-7-7-7-7-||
Bb|-----9--------9---5-5-5-5-5-5-5-5-7-7-7-7-7-7-7-7-||
F|-----7--------7---5-5-5-5-5-5-5-5-5-5-5-5-5-5-5-5-||
C|-0-0------0-0------3-3-3-3-3-3-3-3-----------------||

Outro Riff:
C|--------------------------------------------------------------|
G|--------------------------------------------------------------|
Eb|--------------------------------------------------------------|
Bb|--------------------------------------------------------------|
F|--------------------------------------------------------------|
C|-0-0-<5>-0-<5>--0-0-<5>-0-<5>---0-0-<5>-0-<5>--0-0-<5>-0-<5>--|

C|-------------------------------------------------------------------------------||
G|-------------------------------------------------------------------------------||
Eb|-------------------------------------------------------------------------------||
Bb|-----------------------------------------------------------------------------2-||
F|-----------------------------------------------------------------------------2-||
C|-0-0-<5>-0-<5>-0-<5>-0-<5>-0-<5>-0-<5>-0-<5>-0-<5>-0-<5>-0-<5>-0-<5>-0-<5>-0-0-||


Lyrics:
It`s late enough to go drivin`
And see what`s mine
That`s a study of dying
How to do it right
You`re a holy roller
Get your bed in the loose
If you`re hanging around
I`m holdin the noose

Come a little bit closer
And get on tight
In a hurse rollin over
Just a track in the line
*** it

Come on, let`s go drivin
Come on, let`s take a little ride
That`s the study of dying
How to do it right