Stop Censorship
 
 

 
 1-9 a b c d e f g h i j k l m n o p q r s t u v w x y z
   Queens Of The Stone Age - The Lost Art Of Keeping A Secret Tab    

The lost art of keeping a secret


Guitar 1

E||------|----------------------------|----------------------------|
B||------|----------------------------|----------------------------|
G||------|--5--5--5--x-5-5--5--5--x-5-|----------------------------|
D||------|--5--5--5--x-5-5--5--5--x-5-|--5--5--5--x-5-5--5--5--x-5-|
A||------|--3--3--3--x-3-3--3--3--x-3-|--5--5--5--x-5-5--5--5--x-5-|
E||------|----------------------------|--3--3--3--x-3-3--3--3--x-3-|



----------------------------|----------------------------|
----------------------------|----------------------------|
----------------------------|----------------------------|
--4--4--4--x-4-4--4--4--x-4-|--3--3--3--x-3--3---3h1-----|
--4--4--4--x-4-4--4--4--x-4-|--3--3--3--x-3----------3h1-|
--2--2--2--x-2-2--2--2--x-2-|--1--1--1--x-1--------------|



----------------------------|----------------------------|
----------------------------|----------------------------|
--5--5--5--x-5-5--5--5--x-5-|----------------------------|
--5--5--5--x-5-5--5--5--x-5-|--5--5--5--x-5-5--5--5--x-5-|
--3--3--3--x-3-3--3--3--x-3-|--5--5--5--x-5-5--5--5--x-5-|
----------------------------|--3--3--3--x-3-3--3--3--x-3-|



----------------------------|----------------------------|
----------------------------|----------------------------|
----------------------------|----------------------------|
--4--4--4--x-4-4--4--4--x-4-|--3--3--3--x-3--3---3h1-----|
--4--4--4--x-4-4--4--4--x-4-|--3--3--3--x-3----------3h1-|
--2--2--2--x-2-2--2--2--x-2-|--1--1--1--x-1--------------|



----------------------------|----------------------------|
----------------------------|----------------------------|
--5--5--5--x-5-5--5--5--x-5-|----------------------------|
--5--5--5--x-5-5--5--5--x-5-|--5--5--5--x-5-5--5--5--x-5-|
--3--3--3--x-3-3--3--3--x-3-|--5--5--5--x-5-5--5--5--x-5-|
----------------------------|--3--3--3--x-3-3--3--3--x-3-|



----------------------------|----------------------------|
----------------------------|----------------------------|
----------------------------|----------------------------|
--4--4--4--x-4-4--4--4--x-4-|--3--3--3--x-3-3--3--3--x-3-|
--4--4--4--x-4-4--4--4--x-4-|--3--3--3--x-3-3--3--3--x-3-|
--2--2--2--x-2-2--2--2--x-2-|--1--1--1--x-1-1--1--1--x-1-|



----------------------------|----------------------------|
----------------------------|----------------------------|
--5--5--5--x-5-5--5--5--x-5-|----------------------------|
--5--5--5--x-5-5--5--5--x-5-|--5--5--5--x-5-5--5--5--x-5-|
--3--3--3--x-3-3--3--3--x-3-|--5--5--5--x-5-5--5--5--x-5-|
----------------------------|--3--3--3--x-3-3--3--3--x-3-|



----------------------------|----------------------------|
----------------------------|----------------------------|
----------------------------|----------------------------|
--4--4--4--x-4-4--4--4--x-4-|--3--3--3--x-3--3---3h1-----|
--4--4--4--x-4-4--4--4--x-4-|--3--3--3--x-3----------3h1-|
--2--2--2--x-2-2--2--2--x-2-|--1--1--1--x-1--------------|



----------------------------|----------------------------|
----------------------------|----------------------------|
--5--5--5--x-5-5--5--5--x-5-|----------------------------|
--5--5--5--x-5-5--5--5--x-5-|--5--5--5--x-5-5--5--5--x-5-|
--3--3--3--x-3-3--3--3--x-3-|--5--5--5--x-5-5--5--5--x-5-|
----------------------------|--3--3--3--x-3-3--3--3--x-3-|



----------------------------|--------------------------|
----------------------------|--------------------------|
----------------------------|--------------------------|
--4--4--4--x-4-4--4--4--x-4-|--3--3--3--3--3--3--3--3--|
--4--4--4--x-4-4--4--4--x-4-|--3--3--3--3--3--3--3--3--|
--2--2--2--x-2-2--2--2--x-2-|--1--1--1--1--1--1--1--1--|



----------------------------|----------------------------|
----------------------------|----------------------------|
--5--5--5--x-5-5--5--5--x-5-|----------------------------|
--5--5--5--x-5-5--5--5--x-5-|--5--5--5--x-5-5--5--5--x-5-|
--3--3--3--x-3-3--3--3--x-3-|--5--5--5--x-5-5--5--5--x-5-|
----------------------------|--3--3--3--x-3-3--3--3--x-3-|



----------------------------|----------------------------|
----------------------------|----------------------------|
----------------------------|----------------------------|
--4--4--4--x-4-4--4--4--x-4-|--3--3--3--x-3-5--5--5--x-5-|
--4--4--4--x-4-4--4--4--x-4-|--3--3--3--x-3-5--5--5--x-5-|
--2--2--2--x-2-2--2--2--x-2-|--1--1--1--x-1-3--3--3--x-3-|



----------------------------|----------------------------|
----------------------------|----------------------------|
--5--5--5--x-5-5--5--5--x-5-|----------------------------|
--5--5--5--x-5-5--5--5--x-5-|--5--5--5--x-5-5--5--5--x-5-|
--3--3--3--x-3-3--3--3--x-3-|--5--5--5--x-5-5--5--5--x-5-|
----------------------------|--3--3--3--x-3-3--3--3--x-3-|



----------------------------|----------------------------|
----------------------------|----------------------------|
----------------------------|----------------------------|
--4--4--4--x-4-4--4--4--x-4-|--3--3--3--x-3-5--5--5--x-5-|
--4--4--4--x-4-4--4--4--x-4-|--3--3--3--x-3-5--5--5--x-5-|
--2--2--2--x-2-2--2--2--x-2-|--1--1--1--x-1-3--3--3--x-3-|



----------------------------|----------------------------|
----------------------------|----------------------------|
--5--5--5--x-5-5--5--5--x-5-|----------------------------|
--5--5--5--x-5-5--5--5--x-5-|--5--5--5--x-5-5--5--5--x-5-|
--3--3--3--x-3-3--3--3--x-3-|--5--5--5--x-5-5--5--5--x-5-|
----------------------------|--3--3--3--x-3-3--3--3--x-3-|



----------------------------|----------------------------|
----------------------------|----------------------------|
----------------------------|----------------------------|
--4--4--4--x-4-4--4--4--x-4-|--3--3--3--x-3--3---3h1-----|
--4--4--4--x-4-4--4--4--x-4-|--3--3--3--x-3----------3h1-|
--2--2--2--x-2-2--2--2--x-2-|--1--1--1--x-1--------------|



----------------------------|----------------------------|
----------------------------|----------------------------|
--5--5--5--x-5-5--5--5--x-5-|----------------------------|
--5--5--5--x-5-5--5--5--x-5-|--5--5--5--x-5-5--5--5--x-5-|
--3--3--3--x-3-3--3--3--x-3-|--5--5--5--x-5-5--5--5--x-5-|
----------------------------|--3--3--3--x-3-3--3--3--x-3-|



----------------------------|----------------------------|
----------------------------|----------------------------|
----------------------------|----------------------------|
--4--4--4--x-4-4--4--4--x-4-|--3--3--3--x-3--3---3h1-----|
--4--4--4--x-4-4--4--4--x-4-|--3--3--3--x-3----------3h1-|
--2--2--2--x-2-2--2--2--x-2-|--1--1--1--x-1--------------|



---------------------------|----------------------------|
---------------------------|----------------------------|
--5--5--5--x-5-5--5--5---5-|----------------------------|
--5--5--5--x-5-5--5--5---5-|--5--5--5--x-5-5--5--5--x-5-|
--3--3--3--x-3-3--3--3---3-|--5--5--5--x-5-5--5--5--x-5-|
---------------------------|--3--3--3--x-3-3--3--3--x-3-|



----------------------------|----------------------------|
----------------------------|----------------------------|
----------------------------|----------------------------|
--4--4--4--x-4-4--4--4--x-4-|--3--3--3--x-3-3--3--3--x-3-|
--4--4--4--x-4-4--4--4--x-4-|--3--3--3--x-3-3--3--3--x-3-|
--2--2--2--x-2-2--2--2--x-2-|--1--1--1--x-1-1--1--1--x-1-|



----------------------------|----------------------------|
----------------------------|----------------------------|
--5--5--5--x-5-5--5--5--x-5-|----------------------------|
--5--5--5--x-5-5--5--5--x-5-|--5--5--5--x-5-5--5--5--x-5-|
--3--3--3--x-3-3--3--3--x-3-|--5--5--5--x-5-5--5--5--x-5-|
----------------------------|--3--3--3--x-3-3--3--3--x-3-|



----------------------------|----------------------------|
----------------------------|----------------------------|
----------------------------|----------------------------|
--4--4--4--x-4-4--4--4--x-4-|--3--3--3--x-3--3---3h1-----|
--4--4--4--x-4-4--4--4--x-4-|--3--3--3--x-3----------3h1-|
--2--2--2--x-2-2--2--2--x-2-|--1--1--1--x-1--------------|



----------------------------|----------------------------|
----------------------------|----------------------------|
--5--5--5--x-5-5--5--5--x-5-|----------------------------|
--5--5--5--x-5-5--5--5--x-5-|--5--5--5--x-5-5--5--5--x-5-|
--3--3--3--x-3-3--3--3--x-3-|--5--5--5--x-5-5--5--5--x-5-|
----------------------------|--3--3--3--x-3-3--3--3--x-3-|



----------------------------|----------------------------|
----------------------------|----------------------------|
----------------------------|----------------------------|
--4--4--4--x-4-4--4--4--x-4-|--3--3--3--x-3-5--5--5--x-5-|
--4--4--4--x-4-4--4--4--x-4-|--3--3--3--x-3-5--5--5--x-5-|
--2--2--2--x-2-2--2--2--x-2-|--1--1--1--x-1-3--3--3--x-3-|



----------------------------|----------------------------|
----------------------------|----------------------------|
--5--5--5--x-5-5--5--5--x-5-|----------------------------|
--5--5--5--x-5-5--5--5--x-5-|--5--5--5--x-5-5--5--5--x-5-|
--3--3--3--x-3-3--3--3--x-3-|--5--5--5--x-5-5--5--5--x-5-|
----------------------------|--3--3--3--x-3-3--3--3--x-3-|



----------------------------|----------------------------|
----------------------------|----------------------------|
----------------------------|----------------------------|
--4--4--4--x-4-4--4--4--x-4-|--3--3--3--x-3-5--5--5--x-5-|
--4--4--4--x-4-4--4--4--x-4-|--3--3--3--x-3-5--5--5--x-5-|
--2--2--2--x-2-2--2--2--x-2-|--1--1--1--x-1-3--3--3--x-3-|



----------------------------|----------------------------|
----------------------------|----------------------------|
--5--5--5--x-5-5--5--5--x-5-|----------------------------|
--5--5--5--x-5-5--5--5--x-5-|--4--4--4--x-4-4--4--4--x-4-|
--3--3--3--x-3-3--3--3--x-3-|--4--4--4--x-4-4--4--4--x-4-|
----------------------------|--2--2--2--x-2-2--2--2--x-2-|



----------------------------|----------------------------|
----------------------------|----------------------------|
--8--8--8--x-8-8--8--8--x-8-|----------------------------|
--8--8--8--x-8-8--8--8--x-8-|--7--7--7--x-7-6--6--6--x-6-|
--6--6--6--x-6-6--6--6--x-6-|--7--7--7--x-7-6--6--6--x-6-|
----------------------------|--5--5--5--x-5-4--4--4--x-4-|



----------------------------|----------------------------|
----------------------------|----------------------------|
--5--5--5--x-5-5--5--5--x-5-|----------------------------|
--5--5--5--x-5-5--5--5--x-5-|--5--5--5--x-5-5--5--5--x-5-|
--3--3--3--x-3-3--3--3--x-3-|--5--5--5--x-5-5--5--5--x-5-|
----------------------------|--3--3--3--x-3-3--3--3--x-3-|



----------------------------|----------------------------|-------------------|
----------------------------|----------------------------|-------------------|
----------------------------|----------------------------|-------------------|
--4--4--4--x-4-4--4--4--x-4-|--3--3--3--x-3-5--5--5--x-5-|--4----------------|
--4--4--4--x-4-4--4--4--x-4-|--3--3--3--x-3-5--5--5--x-5-|--4----------------|
--2--2--2--x-2-2--2--2--x-2-|--1--1--1--x-1-3--3--3--x-3-|--2----------------|



------------------|-------------------|------------------|
------------------|-------------------|------------------|
------------------|-------------------|------------------|
------------------|--6----------------|------------------|
------------------|--4----------------|------------------|
------------------|--4----------------|------------------|



----------------------------------|----------------------------------|
----------------------------------|----------------------------------|
--12--12--12--12--12--12--12--12--|--12--12--12--12--12--12--12--12--|
--x---x---x---x---x---x---x---x---|--x---x---x---x---x---x---x---x---|
--10--10--10--10--10--10--10--10--|--10--10--10--10--10--10--10--10--|
----------------------------------|----------------------------------|



-------------------|------------------|-------------------|------------------|
-------------------|------------------|-------------------|------------------|
-------------------|------------------|-------------------|------------------|
--4----------------|------------------|--6----------------|------------------|
--4----------------|------------------|--4----------------|------------------|
--2----------------|------------------|--4----------------|------------------|



------------------|------------------|------------------|------------------|
------------------|------------------|------------------|------------------|
------------------|------------------|------------------|------------------|
------------------|------------------|------------------|------------------|
------------------|------------------|------------------|------------------|
------------------|------------------|------------------|------------------|



------------------|------------------|------------------|------------------|
------------------|------------------|------------------|------------------|
------------------|------------------|------------------|------------------|
------------------|------------------|------------------|------------------|
------------------|------------------|------------------|------------------|
------------------|------------------|------------------|------------------|



----------------------------|----------------------------|
----------------------------|----------------------------|
--5--5--5--x-5-5--5--5--x-5-|----------------------------|
--5--5--5--x-5-5--5--5--x-5-|--5--5--5--x-5-5--5--5--x-5-|
--3--3--3--x-3-3--3--3--x-3-|--5--5--5--x-5-5--5--5--x-5-|
----------------------------|--3--3--3--x-3-3--3--3--x-3-|



----------------------------|----------------------------|
----------------------------|----------------------------|
----------------------------|----------------------------|
--4--4--4--x-4-4--4--4--x-4-|--3--3--3--x-3-5--5--5--x-5-|
--4--4--4--x-4-4--4--4--x-4-|--3--3--3--x-3-5--5--5--x-5-|
--2--2--2--x-2-2--2--2--x-2-|--1--1--1--x-1-3--3--3--x-3-|



----------------------------|----------------------------|
----------------------------|----------------------------|
--5--5--5--x-5-5--5--5--x-5-|----------------------------|
--5--5--5--x-5-5--5--5--x-5-|--5--5--5--x-5-5--5--5--x-5-|
--3--3--3--x-3-3--3--3--x-3-|--5--5--5--x-5-5--5--5--x-5-|
----------------------------|--3--3--3--x-3-3--3--3--x-3-|



----------------------------|----------------------------|
----------------------------|----------------------------|
----------------------------|----------------------------|
--4--4--4--x-4-4--4--4--x-4-|--3--3--3--x-3-5--5--5--x-5-|
--4--4--4--x-4-4--4--4--x-4-|--3--3--3--x-3-5--5--5--x-5-|
--2--2--2--x-2-2--2--2--x-2-|--1--1--1--x-1-3--3--3--x-3-|



----------------------------|----------------------------|
----------------------------|----------------------------|
--5--5--5--x-5-5--5--5--x-5-|----------------------------|
--5--5--5--x-5-5--5--5--x-5-|--4--4--4--x-4-4--4--4--x-4-|
--3--3--3--x-3-3--3--3--x-3-|--4--4--4--x-4-4--4--4--x-4-|
----------------------------|--2--2--2--x-2-2--2--2--x-2-|



----------------------------|----------------------------|
----------------------------|----------------------------|
--8--8--8--x-8-8--8--8--x-8-|----------------------------|
--8--8--8--x-8-8--8--8--x-8-|--7--7--7--x-7-6--6--6--x-6-|
--6--6--6--x-6-6--6--6--x-6-|--7--7--7--x-7-6--6--6--x-6-|
----------------------------|--5--5--5--x-5-4--4--4--x-4-|



----------------------------|----------------------------|
----------------------------|----------------------------|
--5--5--5--x-5-5--5--5--x-5-|----------------------------|
--5--5--5--x-5-5--5--5--x-5-|--4--4--4--x-4-4--4--4--x-4-|
--3--3--3--x-3-3--3--3--x-3-|--4--4--4--x-4-4--4--4--x-4-|
----------------------------|--2--2--2--x-2-2--2--2--x-2-|



----------------------------|----------------------------|
----------------------------|----------------------------|
--8--8--8--x-8-8--8--8--x-8-|----------------------------|
--8--8--8--x-8-8--8--8--x-8-|--7--7--7--x-7-6--6--6--x-6-|
--6--6--6--x-6-6--6--6--x-6-|--7--7--7--x-7-6--6--6--x-6-|
----------------------------|--5--5--5--x-5-4--4--4--x-4-|



--------3---------------|--------3---------------|-------------------------|
--------3---------------|--------3---------------|--------10---------------|
--5-5---5---------------|--5-5---5---------------|--5-5---10---------------|
--5-5---5------3--4--5--|--5-5---5------3--4--5--|--5-5---10------3--4--5--|
--3-3---3------3--4--5--|--3-3---3------3--4--5--|--3-3-----------3--4--5--|
--------3------1--2--3--|--------3------1--2--3--|----------------1--2--3--|



--------8----------------|-------------------||
--------10---------------|-------------------||
--5-5--------------------|-------------------||
--5-5-----------3--4--5--|--5----------------||
--3-3-----------3--4--5--|--5----------------||
----------------1--2--3--|--3----------------||