Stop Censorship
 
 

 
 1-9 a b c d e f g h i j k l m n o p q r s t u v w x y z
   Queens Of The Stone Age - The Sky Is Falling Tab    

Tabbed by Marc Normandin
yankeehater32@juno.com

C Tuning (C-F-Bb-Eb-G-c)



Verse
C----------------------------------------------------------------------------
G----------------------------------------------------------------------------
Eb-----------------------------------------99999-----------------------------
Bb-505050505-505050505-505050505-505050505-99999-88888-12-12-12-12-12-888888-
F--505050505-505050505-505050505-505050505-77777-88888-12-12-12-12-12-888888-
C--303030303-303030303-303030303-303030303-00000-66666-10-10-10-10-10-666666-

Pre-Chorus 1 (listen to the cd for timing)
C--------------------------------------------
G--------------------------------------------
Eb-------------------------------------------
Bb-10----9----8---12---10----9---8----12-----
F--10----9----8---12---10----9---8----12-----
C--8-----7----6---10---8-----7---6----10-----

Chorus
C--------------------------------------------------
G--------------------------------------------------
Eb-------------------------------------------------
Bb-55555-55555-55555-55555-88888-88888-88888-88888-
F--55555-55555-55555-55555-88888-88888-88888-88888-
C--33333-33333-33333-33333-66666-66666-66666-66666-

Pre-Chorus 2 (Listen to the CD for timing)
C------------------------------------
G------------------------------------
Eb-----------------------------------
Bb-10--9---8---12--13--17--14--13----
F--10--9---8---12--13--17--14--13----
C--8---7---6---10--11--15--12--11----

The solo is on Eb between the 12th fret and the 19th fret I believe.
Just make it up as you go along, it`ll work I swear lol....just keep trying it eventually you will have the solo down perfectly, I got it now but I`m still lazy