Stop Censorship
 
 

 
 1-9 a b c d e f g h i j k l m n o p q r s t u v w x y z
   Queens Of The Stone Age - You Think I Aint Worth A Dollar Tab    

Main Riff:
C|--------------------------||
G|--------------------------||
Eb|-5h7p5--7-7-7--7-7-7--7-7-||
Bb|--------7-7-7--7-7-7--7-7-||
F|--------5-5-5--5-5-5--5-5-||
C|--------0-0-0--0-0-0--0-0-||


Fill 1:
C|--------------------------------||
G|--------------------------------||
Eb|--------------7-7-7--7-7-7--7-7-||
Bb|---------7-5--7-7-7--7-7-7--7-7-||
F|--7-5-7-------5-5-5--5-5-5--5-5-||
C|--------------0-0-0--0-0-0--0-0-||


Chorus Riff:
C|------------------------------------||
G|------------------------------------||
Eb|------------------------------------||
Bb|--7-7-7--5--5-5-5-5-5-5--5-5--------||
F|--7-7-7--5--5-5-5-5-5-5--5-5--------||
C|--5-5-5--3--3-3-3-3-3-3--3-3--------||


Chorus 1 Lead:
C|--------------------------------------------------||
G|--------------------------15-17-------------------||
Eb|---------------------------------12-----14-12~~---||
Bb|-------5-7-5------------------------14------------||
F|--5h7---------7-5---------------------------------||
C|--------------------------------------------------||


Chorus 2 Lead:
C|---------------------------------------------------------------------||
G|-----------------------------------------------------15--12-15-12~~--||
Eb|----------------------------------------12-14-12--14-----------------||
Bb|-------5-7^~~--5h7p5--------------12h14------------------------------||
F|--5h7-----------------7-7~~------------------------------------------||
C|---------------------------------------------------------------------||


Riff 2:
C|---------------------------------------||
G|---------------------------------------||
Eb|---------------------------------------||
Bb|--5h7----------------------------------||
F|------5h7------------------------------||
C|----------5h7--3h5--0--0-0-0-0-0-0--0--||


Fill 2:
C|-------------------------------|-----------------------||
G|-------------------------------|-----------------------||
Eb|-------------------------------|-----------------------||
Bb|--12h14------------------------|--12h14p12----12-14^~--||
F|--------12h14------------------|-----------14----------||
C|--------------12h14--10h12--0--|-----------------------||


Chorus 3 Lead:
C|--------------------------------------------------||
G|-------------------------15-17--------------------||
Eb|--^^14-12h14p12~~~~------------14-16--------------|| [Pause]
Bb|-------------------------------------14-16-12-14--||
F|--------------------------------------------------||
C|--------------------------------------------------||


Final Lead Fill:
C|----------------------|
G|----------------------|
Eb|---------12-----15^---|
Bb|--12h14-----14--------|
F|----------------------|
C|----------------------|
("Gimme toro, gimme some more")


Chorus 4 Lead:
C|---------------------------------------------------||
G|------------------15^-----15-17--------------------||
Eb|--------12----12----------------14-16--------------||
Bb|--12h14----14-------------------------14-16-12-14--||
F|---------------------------------------------------||
C|---------------------------------------------------||